Song name
# A B C D E F G H I J K L M N O P Q R S T U V W X Y Z

Black Label Society - Devils Dime tab

Tuning: D  G  C  F  A  D
Intro:
                                  dw   up  dw  up  dw  up dw dw up dw up dw up
|----------------------------------------------------------------------------|
|----------------------------------------------------------------------------|
|----------------------------------------------------------------------------|
|--------------------------------7-12--12-12-12-12-12-12-7--7-7-7-7----------|
|-2---5/7~~5h7p5--2---5/7~~5h7p5-5/10--10-10-10-10-10-10-5--5-5-5-5-5--------|
|-0---------------0-------------------------------------------------3--------|

Fine intro:                       dw   up  dw  up  dw  up dw dw up dw up dw dw
|----------------------------------------------------------------------------|
|----------------------------------------------------------------------------|
|----------------------------------------------------------------------------|
|--------------------------------7-12--12-12-12-12-12-12-7--7-7-7-7-7p5------|
|-2---5/7~~5h7p5--2---5/7~~5h7p5-5/10--10-10-10-10-10-10-5--5-5-5-5-5--------|
|-0---------------0----------------------------------------------------------|

Strofa:
     Pm.................................                                         x3
|----------------------------------------------------------------------------|
|----------------------------------------------------------------------------|
|----------------------------------7-----------------------------------------|
|----------------------------------5-----------------------------------------|
|-2---2-2-2-2-2-2-2-2-2-2-2-2-2-2--5----8------------------------------------|
|-0---0-0-0-0-0-0-0-0-0-0-0-0-0-0-------6----5-3-----------------------------|

     Pm.................................         pick gliss....
|----------------------------------------------------------------------------|
|----------------------------------------------------------------------------|
|----------------------------------7-----------------------------------------|
|----------------------------------5--------/--------------------------------|
|-2---2-2-2-2-2-2-2-2-2-2-2-2-2-2--5----8--/---------------------------------|
|-0---0-0-0-0-0-0-0-0-0-0-0-0-0-0-------6-/----------------------------------|

Ritornello:
                                  dw   up  dw  up  dw  up dw dw up dw up dw up   x2
|----------------------------------------------------------------------------|
|----------------------------------------------------------------------------|
|----------------------------------------------------------------------------|
|--------------------------------7-12--12-12-12-12-12-12-7--7-7-7-7----------|
|-2---5/7~~5h7p5--2---5/7~~5h7p5-5/10--10-10-10-10-10-10-5--5-5-5-5-5--------|
|-0---------------0-------------------------------------------------3--------|
Strofa:
Pm.................................                                         x3
|----------------------------------------------------------------------------|
|----------------------------------------------------------------------------|
|----------------------------------7-----------------------------------------|
|----------------------------------5-----------------------------------------|
|-2---2-2-2-2-2-2-2-2-2-2-2-2-2-2--5----8------------------------------------|
|-0---0-0-0-0-0-0-0-0-0-0-0-0-0-0-------6----5-3-----------------------------|

     Pm.................................         pick gliss....
|----------------------------------------------------------------------------|
|----------------------------------------------------------------------------|
|----------------------------------7-----------------------------------------|
|----------------------------------5--------/--------------------------------|
|-2---2-2-2-2-2-2-2-2-2-2-2-2-2-2--5----8--/---------------------------------|
|-0---0-0-0-0-0-0-0-0-0-0-0-0-0-0-------6-/----------------------------------|

Ritornello:
dw   up  dw  up  dw  up dw dw up dw up dw up                                     x4
|----------------------------------------------------------------------------|
|----------------------------------------------------------------------------|
|----------------------------------------------------------------------------|
|--------------------------------7-12--12-12-12-12-12-12-7--7-7-7-7----------|
|-2---5/7~~5h7p5--2---5/7~~5h7p5-5/10--10-10-10-10-10-10-5--5-5-5-5-5--------|
|-0---------------0-------------------------------------------------3--------|


Pre solo:  palm muting
|------------------------------|
|------------------------------|
|------------------------------|
|-9p7p0h7h9p70h7h9-very fast!--|
|------------------------------|
|------------------------------|

Solo:                    x2                                   x2
 Pm...............................             Pm...............................
|---------------------------|--------|---------------------------|-----------|
|---------------------------|--------|---------------------------|-----------|
|---------------------------|--------|---------------------------|-7^9~~~----|
|-7-5---7-5-7-5---7-5-7-5---|-7^9~~~--|-7-5---7-5-7-5---7-5-7-5---|----------|
|----7-5-------7-5-------7-5|--------|----7-5-------7-5-------7-5|-----------|
|---------------------------|--------|---------------------------|-----------|

                                        tap on 17.............
|------------------------------------------------------------------------------------|
|-17^19~~~----17^19~~~----17^19~~~10^12vp8-17-bending on 10 to 13-2^4~~~-------------|
|---------9~~~-------9~~~------------------------------------------------------------|
|------------------------------------------------------------------------------------|
|------------------------------------------------------------------------------------|
|------------------------------------------------------------------------------------|

|-------------------------------------------------------12-15p12-------------|
|---------------------------------------12-15p12---12-15--------h15----------|
|-----------------------12-15p12---12-15--------h15--------------------------|
|------12-14p12----12-14--------h14------------------------------------------|
|-12-14--------h14-----------------------------------------------------------|
|----------------------------------------------------------------------------|

|-17p12-15p12--15--12--------------------------------------------------------|
|------15----15--15-15p12--17-15p12------15^~~~------------------------------|
|------------------------15--15----15p12-------------------------------------|
|----------------------------------------------------------------------------|
|----------------------------------------------------------------------------|
|----------------------------------------------------------------------------|

                                  dw   up  dw  up  dw  up dw dw up dw up dw up   x2
|----------------------------------------------------------------------------|
|----------------------------------------------------------------------------|
|----------------------------------------------------------------------------|
|--------------------------------7-12--12-12-12-12-12-12-7--7-7-7-7----------|
|-2---5/7~~5h7p5--2---5/7~~5h7p5-5/10--10-10-10-10-10-10-5--5-5-5-5-5--------|
|-0---------------0-------------------------------------------------3--------|
Tap to rate this tab
# A B C D E F G H I J K L M N O P Q R S T U V W X Y Z