Song name
# A B C D E F G H I J K L M N O P Q R S T U V W X Y Z

Black Label Society - Iron Man Inturlude tab

Help us improve GuitareTab! Take a short survey!
This is off of the european doom trooped DVD, on the dvd he zakk wylde is not picking 
part he is hammering on. Enjoy


----------------------------------------------1-tr-3-----------------------|
------------------------------------------------------0-tr-2---------------|
------------------------------------0-tr-3--------------------3-tr-5-------|
-4/7-7/9-9/12/11/12/11/12/117/9-9------------------------------------------|
-2/5-5/7-7/10/9/-10/9/-10/9-5/7-7------------------------------------------|
---------------------------------------------------------------------------|

--------------------------------------------------------------------|
--------------------------------------------------------------------|
--------------------------------------------------------------------|
-0-tr-2-------------------------------------------------------------|
--------0-tr 3-tr-5-------------------------------------------------|
--------------------------------------------------------------------|
What i like to do live is do a little improve in the b minor penotonic scale just to add 
excitment to it! well this isn't easy, especially if you play it the way zakk does! 
/= slide tr= trill (repeditive hammer on and pull off.0
Related for Iron Man Inturlude tab