Song name
# A B C D E F G H I J K L M N O P Q R S T U V W X Y Z

Black Lagoon Ending - Dont Look Behind tab

So, it's my first tabulature and, if you think something wrong with this
tabs, please, let me know, cuz i do want to make this tabs perfect
(skype: takiedela3). Also i'm really not sure about last notes.

E|-----------------------------------------------------------------|
B|-----------------------------------------------------------------|
G|-----------------------------------------------------------------|
D|-14-15--14-15-17--14-15--14-15-17--14-15--14-15-17-14--15-14-12--|
A|-----------------------------------------------------------------|
E|-----------------------------------------------------------------|

E|-----------------------------------------------------------------|
B|-----------------------------------------------------------------|
G|-----------------------------------------------------------------|
D|-16-17--16-17-19--16-17--16-17-19--16-17--16-17-19-16--14--------|
A|-----------------------------------------------------------------|
E|-----------------------------------------------------------------|

E|-----------------------------------------------------------------|
B|-----------------------------------------------------------------|
G|-14-15--14-15-17--14-15--14-15-17--14-15--14-15-17-14--12--------|
D|-----------------------------------------------------------------|
A|-----------------------------------------------------------------|
E|-----------------------------------------------------------------|

E|---------------------------------------------------10------------|
B|---------------------------------------------------10------------|
G|-16-14----16-14---14-12----14-12---12-10----12-10--10/9----------|
D|-------14---------------12---------------10--------12/11---------|
A|-----------------------------------------------------------------|
E|-----------------------------------------------------------------|
Tap to rate this tab
 
# A B C D E F G H I J K L M N O P Q R S T U V W X Y Z