Guitaretab - guitar tabs
Song name
# A B C D E F G H I J K L M N O P Q R S T U V W X Y Z

Black Light Burns - Stop A Bullet tab

-----------------------------------------------------------------------------------------
                               Stop A Bullet - Black Light Burns
-----------------------------------------------------------------------------------------

Tabbed By: Stephen McFall
Email: smboo28@aim.com

Tuning: Gtrs. 1 & 2 are in 1 &  steps down Drop D low to High (B,F#,B,E,G#,C#)

No Guitars until halfway through 2nd Chorus and its Gtr. 2 playing this

Pre-Interlude Gtr. 2 (Distorted) (Parentheses means you start a slid up to the 12th fret
at the 10th fret)
C#|-----------------------------------------------------------------------|
G#|-----------------------------------------------------------------------|
 E|-----------------------------------------------------------------------|
 B|-----------------------------------------------------------------------|
F#|-----------------------------------------------------------------------|
 B|-0~-0-0-0-(10)/12~--0--0-0--0-0-(10)/12~-10-12-------------------------|
PM       *                *    *

Then
C#|--------------------------------------------------------------------|
G#|--------------------------------------------------------------------|
 E|--------------------------------------------------------------------|
 B|--------------------------------------------------------------------|
F#|-----------------------5--5---5-------------------------------------|
 B|-0~-0-0-0-(10)/12-12~--0--0--00-(10)/12~-12~------------------------|
PM       *                      *


Interlude Gtr. 1 (Distorted)
C#|--------------------------------------------------------------------|}
G#|-15-15-15-15~\--/15-15-15-15-17-18-18-18-18~\--/18-18-18-18~\-------|}
 E|-x--x--x--x------x--x--x--x--x--x--x--x--x------x--x--x--x----------|}
 B|-12-12-12-12~\--/12-12-12-12-14-15-15-15-15~\--/15-15-15-15~\-------|}
F#|--------------------------------------------------------------------|}
 B|--------------------------------------------------------------------|}
                                                                        } play 2x
Then                                                                    }
C#|--------------------------------------------------------------------|}
G#|-/20-20-20-20~\--/20-20-20-20~\--/13-13-13-13~\--/13-13-13-13-14----|}
 E|--x--x--x--x------x--x--x--x------x--x--x--x------x--x--x--x--x-----|}
 B|-/17-17-17-17~\--/17-17-17-17~\--/10-10-10-10~\--/10-10-10-10-11----|}
F#|--------------------------------------------------------------------|}
 B|--------------------------------------------------------------------|}


Interlude Gtr. 2 (Distorted) play 2x
C#|--------------------------------------------------------------------|
G#|--------------------------------------------------------------------|
 E|--------------------------------------------------------------------|
 B|-0-00-00-/12~\-0-00-00-/12~\-3-33-33-/12~\-3-33-33-/12~\------------|
F#|-0-00-00-/12~\-0-00-00-/12~\-3-33-33-/12~\-3-33-33-/12~\------------|
 B|-0-00-00-/12~\-0-00-00-/12~\-3-33-33-/12~\-3-33-33-/12~\------------|
PM    *  *          *  *          *  *          *  *

Then
C#|--------------------------------------------------------------------|
G#|--------------------------------------------------------------------|
 E|-5-55-55-------5-55-55----------------------------------------------|
 B|-5-55-55-/12~\-5-55-55-/12~\-10-1010-1010-/12~\-10-1010-1010-/12-11-|
F#|-5-55-55-/12~\-5-55-55-/12~\-10-1010-1010-/12~\-10-1010-1010-/12-11-|
 B|-5-55-55-/12~\-5-55-55-/12~\-10-1010-1010-/12~\-10-1010-1010-/12-11-|
PM    *  *          *  *           *    *             *    *

[ Tab from: http://www.guitaretab.com/b/black-light-burns/112704.html ]
Final Chorus Gtr. 1 (Distorted)
C#|--------------------------------------------------------------------|}
G#|-15-15-15-15-15-15-15-15-15-15-15-15-15-15-17-17--------------------|}
 E|-x--x--x--x--x--x--x--x--x--x--x--x--x--x--x--x---------------------|}
 B|-12-12-12-12-12-12-12-12-12-12-12-12-12-12-14-14--------------------|}
F#|--------------------------------------------------------------------|}
 B|--------------------------------------------------------------------|}
                                                                        }
Then                                                                    }
C#|--------------------------------------------------------------------|}
G#|-18-18-18-18-18-18-18-18-18-18-18-18-18-18-18-18--------------------|}
 E|-x--x--x--x--x--x--x--x--x--x--x--x--x--x--x--x---------------------|}
 B|-15-15-15-15-15-15-15-15-15-15-15-15-15-15-15-15--------------------|}
F#|--------------------------------------------------------------------|}
 B|--------------------------------------------------------------------|}
                                                                        } play all 2x
Then                                                                    }
C#|--------------------------------------------------------------------|}
G#|-20-20-20-20-20-20-20-20-20-20-20-20-20-20-20-20--------------------|}
 E|-x--x--x--x--x--x--x--x--x--x--x--x--x--x--x--x---------------------|}
 B|-17-17-17-17-17-17-17-17-17-17-17-17-17-17-17-17--------------------|}
F#|--------------------------------------------------------------------|}
 B|--------------------------------------------------------------------|}
                                                                        }
Then                                                                    }
C#|--------------------------------------------------------------------|}
G#|-13-13-13-13-13-13-13-13-13-13-13-13-13-13-14-14--------------------|}
 E|-x--x--x--x--x--x--x--x--x--x--x--x--x--x--x--x---------------------|}
 B|-10-10-10-10-10-10-10-10-10-10-10-10-10-10-11-11--------------------|}
F#|--------------------------------------------------------------------|}
 B|--------------------------------------------------------------------|}

End On
G#|15~|
 E|x--|
 B|12~|


Final Chorus Gtr. 2 (Distorted)
C#|--------------------------------------------------------------------|}
G#|--------------------------------------------------------------------|}
 E|--------------------------------------------------------------------|}
 B|-0-0-0-0-0-0-0-0-0-0-0-0-0-0-2-2------------------------------------|}
F#|-0-0-0-0-0-0-0-0-0-0-0-0-0-0-2-2------------------------------------|}
 B|-0-0-0-0-0-0-0-0-0-0-0-0-0-0-2-2------------------------------------|}
                                                                        }
Then                                                                    }
C#|--------------------------------------------------------------------|}
G#|--------------------------------------------------------------------|}
 E|--------------------------------------------------------------------|}
 B|-3-3-3-3-3-3-3-3-3-3-3-3-3-3-3-3------------------------------------|}
F#|-3-3-3-3-3-3-3-3-3-3-3-3-3-3-3-3------------------------------------|}
 B|-3-3-3-3-3-3-3-3-3-3-3-3-3-3-3-3------------------------------------|}
                                                                        }Play all 2x
Then                                                                    }
C#|--------------------------------------------------------------------|}
G#|--------------------------------------------------------------------|}
 E|--------------------------------------------------------------------|}
 B|-5-5-5-5-5-5-5-5-5-5-5-5-5-5-5-5------------------------------------|}
F#|-5-5-5-5-5-5-5-5-5-5-5-5-5-5-5-5------------------------------------|}
 B|-5-5-5-5-5-5-5-5-5-5-5-5-5-5-5-5------------------------------------|}
                                                                        }
Then                                                                    }
C#|--------------------------------------------------------------------|}
G#|--------------------------------------------------------------------|}
 E|--------------------------------------------------------------------|}
 B|-10-10-10-10-10-10-10-10-10-10-10-10-10-10-11-11--------------------|}
F#|-10-10-10-10-10-10-10-10-10-10-10-10-10-10-11-11--------------------|}
 B|-10-10-10-10-10-10-10-10-10-10-10-10-10-10-11-11--------------------|}

End With (Parentheses around notes means tap the enclosed fret to harmonize it then bend
note up a half step then release the bend)
 B|12-(24)b(25)~r(24)~|
F#|12-(24)b(25)~r(24)~|
 B|12-(24)b(25)~r(24)~|


Theres actually one more guitar part in the final chorus but I definitely cant figure
out it sounds like its almost entirely made up of Tapped Harmonics Bell Harmonics 
Harmonicsand maybe some Pinch Harmonics
In other words lots of harmonics and also they dont play this part live
If I figure out this part I will update the tab

The End

Thanks please Rate!!!
Email me at smboo28@aim.com if you have any fixes


| /  slide up
| \  slide down
| h  hammer-on
| p  pull-off
| ~  vibrato
| +  harmonic
| x  Mute note
===============================================================================
Related for Stop A Bullet tab