Guitaretab - guitar tabs
Song name
# A B C D E F G H I J K L M N O P Q R S T U V W X Y Z

Black Light Burns - Animal tab

-------------------------------------------------------------------------------
		        Animal - Black Light Burns
-------------------------------------------------------------------------------
Tabbed by: Stephen McFall
Email: smboo28@aim.com

Tuning: Gtr. 1 & 2 are in 1 step down Drop D low to high (C,G,C,F,A,D)
This is the only song on this CD in this tuning also I guarantee the correctness of this
as I have watched them play it live and both guitarists switched guitars and it was
in this tuning so donít tell me Im wrong just cause Borland usually doesnít play in this 
cause I know that. By the way live Guitar 1 is Annis and Guitar 2 is Borland

Guitar is silent during both verses + Intro

Pre-Chorus Gtr. 1 (Distorted) play 2x
D|-----0------0----0---0----0-----0-----0-5---0---0---------------------------|
A|----------------------------------------------------3-----------------------|
F|----------------------------------------------------------------------------|
C|----------------------------------------------------------------------------|
G|-------------------0---02---------------------------------------------------|
C|-0-2---2-5-----0------------0-2---2-5-----0---0---0-------------------------|
PM * *   * *     *   *   **   * *   * *     *   *   *
[ Tab from: http://www.guitaretab.com/b/black-light-burns/168909.html ]
Pre-Chorus Gtr. 2 (Distorted) play 3x with Palm Mutes and 1x without
D|---------------------------------------------------------------------------|
A|---------------------------------------------------------------------------|
F|---------------------------------------------------------------------------|
C|-0-2---2b3r2---0---2-2b3r2---0---2-----------------------------------------|
G|-----0-------0---0---------0---0-------------------------------------------|
C|---------------------------------------------------------------------------|
PM * * * *     * * * * *     * * * *
Chorus Gtrs. 1 & 2 (Distorted) play 2x for First Chorus This is 100% correct.
D|---------------------------------------------------------------------------|
A|--------------------10~----------------------------------------------------|
F|--------------------9~-----------------------------------------------------|
C|-2~~~--5~~~--12~~~--7~~~---------------------------------------------------|
G|-2~~~--5~~~--12~~~--7~~~---------------------------------------------------|
C|-2~~~--5~~~--12~~~--7~~~---------------------------------------------------|

Then for 2nd Verse guitars are silent again

Then repeat Pre-Chorus

Then play Chorus riff 4x for 2nd Chorus

Bridge Gtr. 1 (Distorted) play line 1 once then play line 2 3x
D|-----0------0---0---0----0-----0-----0-5---0--5-0---xx----------------------|
A|----------------------------------------------------xx-3--------------------|
F|----------------------------------------------------xx-2--------------------|
C|----------------------------------------------------xx-0--------------------|
G|------------------0----0----------------------------xx----------------------|
C|-0-2---2-5----0-------0------2---2-5-----0----0-----xx----------------------|
PM * *   * *    *   *   **     *   * *     *    *


D|-----0------0---0---0----0-----0-----0-5---0--5-0--xx----------------------|
A|---------------------------------------------------xx-3--------------------|
F|---------------------------------------------------xx-2--------------------|
C|---------------------------------------------------xx-0--------------------|
G|------------------0----0---------------------------xx----------------------|
C|--2----2-5----0-------0------2---2-5-----0-----0---xx----------------------|
PM  *    * *    *   *   **     *   * *     *     *

Guitar 2 is silent during bridge

Then play Chorus Riff 4x for Final Chorus

Outro Gtr. 1 (Distorted) play Over and Over and fade out
D|---------------------------------------------------------------------------|
A|---------------------------------------------------------------------------|
F|---------------------------------------------------------------------------|
C|-0-2---2b3r2---0-----------------------------------------------------------|
G|-----0-------0---0---------------------------------------------------------|
C|---------------------------------------------------------------------------|
PM * * * *     * * *

Guitar 2 is silent for Outro but could double Gtr. 1 part


| /  slide up
| \  slide down
| h  hammer-on
| p  pull-off
| ~  vibrato
| +  harmonic
| x  Mute note
===============================================================================
Related for Animal tab