Guitaretab - guitar tabs
Song name
# A B C D E F G H I J K L M N O P Q R S T U V W X Y Z

Black Light Burns - Lucretia My Reflection tab

Song: Lucretia My Reflection (Sisters Of Mercy Cover)
Artist: Black Light Burns
Album: Cover Your Heart And The Anvil Pants Odyssey (2008)

Tuning: (low) C# F# B E G# C# (high)

If you'd like to play this song in E Standard tuning, just subtract
3 from every number in this tablature and you're good to go.

Sound: Listen to the song and play around with your reverb and delay
settings. Use humbuckers and try bending notes randomly from time to time,
that's the way Wes plays most of his clean parts.
Another important thing for playing this song is timing, so take your time
listening to the song very closely.

Email: sage131@gmail.de


Verse

C#--------------------------------------------------------------------------|
G#--------------------------------------------------------------------------|
E---------------------------------------------------------------------------|
B------10-10-10-10-10-10-10-10*----8h10-8h10-10b-10-10--8h10-8h10-10b-10-10-|
F#--------------------------------------------------------------------------|
C#--------------------------------------------------------------------------|

*Play those 10s as many times as you want - just play it on a gut level. You
can do that with many other notes in this song aswell, so feel free to alter
the amount of the recommended ones.

Fig 1 (0:42 - 0:49)

C#--------------------------------------------------------------------------|
G#--------------------------------------------------------------------------|
E---------------------------------------------------------------------------|
B------13-13-13-13-13p12--12-12-12-12-12\10-10-10-10/15--13-12-12\-Verse----|
F#--------------------------------------------------------------------------|
C#--------------------------------------------------------------------------|

Fig 2 (1:01 - 1:14), (2:13 - 2:26)

C#--------------------------------------------------------------------------|
G#--------------------------------------------------------------------------|
E----17h19-19-19-19-19-19-19-19-20-20-20-20-20-22-22-22-22-22---------------|
B---------------------------------------------------------------------------|
F#--------------------------------------------------------------------------|
C#--------------------------------------------------------------------------|

x 2

then (1:14 - 1:21)

C#--------------------------------------------------------------------------|
G#-----20--------20---------20------20--------20---------20-----------------|
E---------17-17-----17-17------17------17-17------17-17-----17--------------|
B---------------------------------------------------------------------------|
F#--------------------------------------------------------------------------|
C#--------------------------------------------------------------------------|

x 2

Chorus

C#--------------------------------------------------------------------------|
G#--------------------------------------------------------------------------|
E--------15-17-15-17--17-17----15-17-15-17--17-17---------------------------|
B---------------------------------------------------------------------------|
F#--------------------------------------------------------------------------|
C#--------------------------------------------------------------------------|

x 4

C#--------------------------------------------------------------------------|
G#--------------------------------------------------------------------------|
E--------15-15-15-15--15\14----20-20-20-------------------------------------|
B---------------------------------------------------------------------------|
F#--------------------------------------------------------------------------|
C#--------------------------------------------------------------------------|

Instead of the 20s on the E string you can also play 16s on the G# string.

then

C#--------------------------------------------------------------------------|
G#--------------------------------------------------------------------------|
E--------12-12-12-13-13--12-12-10--10-9-------------------------------------|
B---------------------------------------------------------------------------|
F#--------------------------------------------------------------------------|
C#--------------------------------------------------------------------------|

Fig 4 (2:26 - 2:40)
[ Tab from: http://www.guitaretab.com/b/black-light-burns/183428.html ]
C#--------------------------------------------------------------------------|
G#--------------------------------------------------------------------------|
E--------12--12-10-12-10--10\8--8-8-7-7-7-/-12-12-7-7-7-/15-15\14-14-14-14--|
B---------------------------------------------------------------------------|
F#--------------------------------------------------------------------------|
C#--------------------------------------------------------------------------|

C#---------------------------------------------------------------------------|
G#---------------------------------------------------------------------------|
E---17-19-20-22-22p20-20-20-20--15-17-15-17-17b-17-17--15-17-15-17-19-19-17~-|
B----------------------------------------------------------------------------|
F#---------------------------------------------------------------------------|
C#---------------------------------------------------------------------------|

Fig 5 (2:53 - 3:14) (same as verse, only higher)

C#--------------------------------------------------------------------------|
G#--------------------------------------------------------------------------|
E--------17-17-17-17-17-17-17-17--15-17-15-17-17b-17-17---------------------|
B---------------------------------------------------------------------------|
F#--------------------------------------------------------------------------|
C#--------------------------------------------------------------------------|

Play the 15s louder than the 17s.

Fig 6 (3:14 - 3:18)

C#--------------------------------------------------------------------------|
G#----------------------------------------------20-20-----------------------|
E--------19--19-19-19-19-20--20-20-20-20-22-22------------------------------|
B---------------------------------------------------------------------------|
F#--------------------------------------------------------------------------|
C#--------------------------------------------------------------------------|

Fig 7 (3:25 - 3:38)

This part is kind of tough.
Listen to the song closely because timing is very important when playing these notes.

C#---------------16-18--18-16-----------------------------------------------|
G#-----17-18-20----------------20-18-17~------------------------------------|
E---------------------------------------------------------------------------|
B---------------------------------------------------------------------------|
F#--------------------------------------------------------------------------|
C#--------------------------------------------------------------------------|

C#--------------18--16-18-16------------------------------------------------|
G#-----17-18-20---------------20-18-18p17~----------------------------------|
E---------------------------------------------------------------------------|
B---------------------------------------------------------------------------|
F#--------------------------------------------------------------------------|
C#--------------------------------------------------------------------------|

C#---------------------------------------------------------------------------|
G#-----17-18-20-21-----21-20-18-17b-17~--------------------------------------|
E----------------------------------------------------------------------------|
B----------------------------------------------------------------------------|
F#---------------------------------------------------------------------------|
C#---------------------------------------------------------------------------|

I am pretty sure that the part above is correct.
Sometimes it sounds like there is more going on but I can tell you that it's
a synthesizer in the background. However, feel free to send me comments or corrections.

Fig 8 (4:04)

C#--------------------------------------------------------------------------|
G#--------------------------------------------------------------------------|
E------19-19-19-19-19-19-19-19-20-20-20-20-20-22-22-22-22-22----------------|
B---------------------------------------------------------------------------|
F#--------------------------------------------------------------------------|
C#--------------------------------------------------------------------------|

x 2

then mess around with these notes

C#--------------------------------------------------------------------------|
G#------20------------------------------------------------------------------|
E---22----------------------------------------------------------------------|
B---------------------------------------------------------------------------|
F#--------------------------------------------------------------------------|
C#--------------------------------------------------------------------------|

That's it. Have fun playing this beautiful song.
Related for Lucretia My Reflection tab
×
Lucretia My Reflection