Song name
# A B C D E F G H I J K L M N O P Q R S T U V W X Y Z

Black Light Burns - Beeblicowcarapis tab

 "Beeblicowcarapis" by Black Light Burns (originaly Eat The Day),
 
 tabbed by MafiaMaster (bourrindercii@gmail.com)


tuning : low to high: C# F# B E G# C# (standard Wes Borland)


Intro and Verse

  Part 1 (clean w/ delay)

-------------------------------|
-------------------------------|
-------------------------------|
-------------------------------|
-------11-------11----13---13--|
-12-12----12-12----12---12-----|

  Part 2 (Heavy distortion)

---------------------------------|
---------------------------------|
-------13-------13----15-15-15-15|
---------------------------------|
-------11-------11----13-13-13-13|
-0--0-----0--0-----0-------------|




Chorus (Heavy Distortion)

-------------------------------------------------|
-------------------------------------------------|
-------------------------------------------------|
-------------------------------------------------|
-----7b8-7-------5---7b8-----7b8-7-------5----3~-|
-0-0-------0-0-3---3-----0-0-------0-0-3---3--1~-|


Interlude 

--------------------------|
--------------------------|
--------------------------|
--------------------------| louder and louder
------------------------7-|
-0-3-0-5-0-7-0005-0-7-0---|



Structure of the song

Intro
 part 1 x7
 part 2 x1
 part 1 x3
 part 2 x2
 part 1 x2
 part 2 x3
 part 1 x1

Chorus x5

Verse
 part 2 x1
 part 1 x4
 part 2 x1
 part 1 x4
 part 2 x3
 part 1 x1

Chorus x5

Interlude, as necessary

Verse
 part 2 x3
 part 1 x1

Chorus x5

End
 part 2 x1
  
Tap to rate this tab
 
# A B C D E F G H I J K L M N O P Q R S T U V W X Y Z