Song name
# A B C D E F G H I J K L M N O P Q R S T U V W X Y Z

Black Lips - Throw It Away tab

Hey guys we're a begining band and we're getting good so i hope you guys will support us!


this is our first song, throw it away i hope you like it

verse 1
------------------------------------------------------|
------------------------------------------------------|
------------------------------------------------------|  x4
------------------7--------5-------3------------------|
------------------7--------5-------3------------------|
------------------5--------3-------1------------------|
(so just throw it away)
------------------------------------------------------|
------------------------------------------------------|
-----------------------3------------------------------|
------------------------------------------------------|
----------55--444-------------------------------------|
------------------------------------------------------|
Tap to rate this tab
 
# A B C D E F G H I J K L M N O P Q R S T U V W X Y Z