Song name
# A B C D E F G H I J K L M N O P Q R S T U V W X Y Z

Black Lips - Take My Heart tab

-------------------------------------------------------------------------------
			     SONG NAME - Band Name
-------------------------------------------------------------------------------
Tabbed by:Pete
Email:stewiethepro@live.be

Tuning:Standard

Verse

Guitar 1
e|---------------------------------------------------------------------------|
B|---------------------------------------------------------------------------|
G|-----5--7---------------5--7----------------7p5--------------5-------------|
D|-----5--7--5------------5--7--5----------5--7p5--5-----------5--7--5-------|
A|--------------7--5--------------7--5----------------7--5-------------7--5--|
E|--0------------------0----------------0-------------------0----------------|

Guitar 2
e|---------------------------------------------------------------------------|
B|---------------------------------------------------------------------------|
G|--------------7--5--2-------------7--5--2----------------------------------|
D|--------------7--5--2-------------7--5--2----------------------------------|
A|---------------------------------------------------------------------------|
E|--0--00--00------------0--00--00-------------------------------------------|

Pre-Chorus
e|--0------------------------------------------------------------------------|
B|--2------------------------------------------------------------------------|
G|--2------------------------------------------------------------------------|
D|--2------------------------------------------------------------------------|
A|--0------------------------------------------------------------------------|
E|---------------------------------------------------------------------------|

Solo
e|---------------------------------------------------------------------------|
B|-------------------------b13b13b13b13b13b13b13--b17b17b17b17b17b17b17------|
G|--b14b14b14b14b14b14b14----------------------------------------------------|
D|---------------------------------------------------------------------------|
A|---------------------------------------------------------------------------|
E|---------------------------------------------------------------------------|



| /  slide up
| \  slide down
| h  hammer-on
| p  pull-off
| ~  vibrato
| +  harmonic
| x  Mute note
===============================================================================
Tap to rate this tab
# A B C D E F G H I J K L M N O P Q R S T U V W X Y Z