Song name
# A B C D E F G H I J K L M N O P Q R S T U V W X Y Z

Black Lips - Buried Alive tab

Intro
e-------------------------------------------------------------|
B--10-9-10-12-10-12-13-15-13-12-10-9-10-9-10-12-10-9-5--------|
G-------------------------------------------------------------|
D-------------------------------------------------------------|
A-------------------------------------------------------------|
E-------------------------------------------------------------|

e-------------------------------------------------------------|
B--10-9-10-12-10-12-13-15-13-12-10-9-10-9-10-12--5--10--------|
G-------------------------------------------------------------|
D-------------------------------------------------------------|
A-------------------------------------------------------------|
E-------------------------------------------------------------|

Verse
e-------------------------------------------------------------|
B-------1-----------------------------------------------------|
G-------2-----------------------------------------------------|
D--2----2-----------------------------------------------------|
A--0----------------------------------------------------------|
E--0----------------------------------------------------------|
(Just Go back and forth hitting the "chord" on D, A and Am on E and B, G, and D)

Chorus
e-------------------------------------------------------------|
B--1--(x8)--1--(x8)-------------------------------------------|
G--2--------2-------------------------------------------------|
D--3--------2-------------------------------------------------|
A-------------------------------------------------------------|
E-------------------------------------------------------------|
(Play this 3 times, chords are F and Am)

e--1----------------------------------------------------------|
B--3--(x4)--1--(x4)--1--(x8)----------------------------------|
G--2--------0--------2----------------------------------------|
D-----------2--------2----------------------------------------|
A-----------3-------------------------------------------------|
E-------------------------------------------------------------|
(Play this once after the first part of the chorus 3 times, chors are Dm, C, and Am)

Intro
Verse
Chorus
Intro
Verse
Chorus
Intro
Tap to rate this tab
 
# A B C D E F G H I J K L M N O P Q R S T U V W X Y Z