Song name
# A B C D E F G H I J K L M N O P Q R S T U V W X Y Z

Black Lips - Aint Comin Back tab

Intro: E Em 4X  E A 4X
Verse 1: E A 8X

Bridge: A E

Chorus : E G D

Solo: (Live Version)

e------------------------------------12-12-12-12-12-12-12-12---15p12-------15p12----|
b-12--12--12--12--12--12--12---12-15b-15b15b15b15b15b15b15b--------15p12------------|
g-14b-14b-14b-14b-14b-14b-14b-14b---------------------------------------------------|
d-----------------------------------------------------------------------------------|
a-----------------------------------------------------------------------------------|
e-----------------------------------------------------------------------------------|

e--------15p12------15p12--------------------------------------------------------------|
b-15p12-------15p12------15p12--12--12--12--12--12--12--12---12------------------------|
g--------------------------------14b-14b-14b-14b-14b-14b-14b--12-----------------------|
d------------------------------------------------------------------14------------------|
a--------------------------------------------------------------------------------------|
e--------------------------------------------------------------------------------------|

Tab By: Austin Wiseman
Tap to rate this tab
 
# A B C D E F G H I J K L M N O P Q R S T U V W X Y Z