Song name
# A B C D E F G H I J K L M N O P Q R S T U V W X Y Z

Black Lips - Gentle Violence tab

Gentle Violence

Intro:
                                                                     
E||--------------------|--------------------|-----------------------|
B||--------------------|--------------------|-----------------------|
G||--------------------|--------------------|-----------------------|
D||--------------------|--------------------|-----------------------|
A||-----------5--------|--3-----------------|------------5----5--5--|
E||--3-----------------|-----------0--------|--3----3---------------|


                                                                    
-------------------------|
-------------------------|
-------------------------|
-------------------------|
--3--3--3----------------|
-----------0----0--0--0--|

Verse: G D C E

Chorus : E C E C G E C D/Dsus4(you put your pinky on and off the third fret of the high E)
Tap to rate this tab
# A B C D E F G H I J K L M N O P Q R S T U V W X Y Z