Song name
# A B C D E F G H I J K L M N O P Q R S T U V W X Y Z

Black Lips - Cant Dance tab

Main Theme
E|-------------------------------------------------|
B|-------------------------------------------------|
G|-------------------------------------------------|
D|-9-9-11-11-9-9-11-11--------------------X's 11---|
A|-7-7--7--7-7-7--7--7-10-10-12-10-10-12-----------|
E|-----------------------8--8--8--8--8--8----------|

E|---------------------------------------------------|
B|---------------------------------------------------|
G|---------------------------------------------------|
D|--------------------X's 3--------------------------|
A|-7-7-7-7-10-10-9-8------9-9-9-9-9-9-9-9------------|
E|-5-5-5-5--8--8-7-6------7-7-7-7-7-7-7-7------------|

E|-------------------------------------------------|
B|-------------------------------------------------|
G|-------------------------------------------------|
D|-9-9-11-11-9-9-11-11--------------------X's 15---|
A|-7-7--7--7-7-7--7--7-10-10-12-10-10-12-----------|
E|-----------------------8--8--8--8--8--8----------|

E|---------------------------------------------------|
B|---------------------------------------------------|
G|---------------------------------------------------|
D|--------------------X's 3--------------------------|
A|-7-7-7-7-10-10-9-8------9-9-9-9-9-9-9-9------------|
E|-5-5-5-5--8--8-7-6------7-7-7-7-7-7-7-7------------|

E|-------------------------------------------------|
B|-------------------------------------------------|
G|-------------------------------------------------|
D|-9-9-11-11-9-9-11-11--------------------X's 7----|
A|-7-7--7--7-7-7--7--7-10-10-12-10-10-12-----------|
E|-----------------------8--8--8--8--8--8----------|


                                                          ~ JR
Tap to rate this tab
# A B C D E F G H I J K L M N O P Q R S T U V W X Y Z