Song name
# A B C D E F G H I J K L M N O P Q R S T U V W X Y Z

Black Lips - I Saw A Ghostlean tab

 Intro/Verse 1 (0:01-0:37)
E~-------------------------------------------------|
B~-------------------------------------------------|
G~----------------------------------------|  X's 5-|
D~-------------------------------------------------|
A~-------------0--5--0-5-0---7--7-5----------------|
E~-0--7--0-7-0--------------0--0----7--------------|
 Chorus (0:37-0:51)
E~----------------------------------------------------------|
B~----------------------------------------------------------|
G~--------------------------------------------------| X's 2-|
D~----------------------------------------------------------|
A~---------------5--0--5-0-5-0--7--7-5-----7--7-5-----------|
E~-7--0--7-0-7-0---------------0--0----7--0--0----7---------|
 Verse 2 (0:51-1:20)
E~-------------------------------------------------|
B~-------------------------------------------------|
G~----------------------------------------|  X's 4-|
D~-------------------------------------------------|
A~-------------0--5--0-5-0---7--7-5----------------|
E~-0--7--0-7-0--------------0--0----7--------------|
 Chorus (1:20-1:35)
E~-----------------------------------------------------------|
B~-----------------------------------------------------------|
G~---------------------------------------------------| X's 2-|
D~-----------------------------------------------------------|
A~---------------5--0--5-0-5-0--7--7-5-----7--7-5------------|
E~-7--0--7-0-7-0---------------0--0----7--0--0----7----------|
  Goes into backward guitar riffs
E~-------------------------------------------------|
B~-------------------------------------------------|
G~----------------------------------------|  X's 4-|
D~-------------------------------------------------|
A~-------------0--5--0-5-0---7--7-5----------------|
E~-0--7--0-7-0--------------0--0----7--------------|
 Chorus (2:05-2:18)
E~-----------------------------------------------------------|
B~-----------------------------------------------------------|
G~---------------------------------------------------| X's 2-|
D~-----------------------------------------------------------|
A~---------------5--0--5-0-5-0--7--7-5-----7--7-5------------|
E~-7--0--7-0-7-0---------------0--0----7--0--0----7----------|
  Repeats similar pattern into fade (2:19-2:53)
E~-------------------------------------------|
B~-------------------------------------------|
G~-------------------------------------------|
D~-------------------------------------------|
A~---7--------------------7------------------|
E~-0----7---0--7-----0-------7--0-0-0-7-0----|

    ~Courtesy of John Windchime McGlocklen
Tap to rate this tab
# A B C D E F G H I J K L M N O P Q R S T U V W X Y Z