Song name
# A B C D E F G H I J K L M N O P Q R S T U V W X Y Z

Black Lungs - Hold Fast Sink Or Swim tab

Hold Fast Sink or Swim by Black Lungs

Tabbed by: Nic
Email:

Tuning: standard (e concert)

Main riff; played stacatto and with palm muting until chorus

   Amin            Dmin
e|-0-0-0-0-0-0-0-0-1-1-1-1-1-1-1-1------------------------------------------|
B|-1-1-1-1-1-1-1-1-3-3-3-3-3-3-3-3------------------------------------------|
G|-2-2-2-2-2-2-2-2-2-2-2-2-2-2-2-2------------------------------------------|
D|--------------------------------------------------------------------------|
A|--------------------------------------------------------------------------|
E|--------------------------------------------------------------------------|

Chorus: big chords with distortion, let them ring

e|-0-------0-------1------1-1-----------------------------------------------|
B|-1-------1-------1------1-1-----------------------------------------------|
G|-0-------2-------2------2-2-----------------------------------------------|
D|-2-------2-------3------3-3-----------------------------------------------|
A|-3-------0-------3------3-3-----------------------------------------------|
E|-----------------1------1-1-----------------------------------------------|

He plays the main riff and chorus again, then it leads to a little lead part, ill write 
chords played in the background on top of the lead.

  Amin                          Amin
e|--------------------------------------------------------------------------|
B|-------8p0---6p0--3/1---1---------8p0---6p0---3/1---1---------------------|
G|---5-------5----5-----4-----5---------5-----5-----4-----------------------|
D|--------------------------------------------------------------------------|
A|-0---0--------------------0----0------------------------------------------|
E|--------------------------------------------------------------------------|

 Dmin        Dmin                   Amin
e|-----1----------1----------------------------------------------------------|
B|-----3--------3-----------------------8-6-5---5-------8-6-5---5------------|
G|---2--------2-----------------------5-------7---7---5-------7---7----------|
D|-0------0-0----------5-x-x-5-x-x-------------------------------------------|
A|---------------------3-x-x-3-x-x--0---------------0------------------------|
E|---------------------------------------------------------------------------|

  Dmin
e|--------------------------------------------------------------------------|
B|-----8-6-5---5-------8-6--------------------------------------------------|
G|---5-------7---7---6------5-5-5-5-5---------------------------------------|
D|-0---------------0--------5-5-5-5-5---------------------------------------|
A|--------------------------3-3-3-3-3---------------------------------------|
E|--------------------------------------------------------------------------|


Then he plays the chorus again, and at the end, instead of letting the chords ring, he strums them.

Feedback is appreciated.

| /  slide up
| \  slide down
| h  hammer-on
| p  pull-off
| ~  vibrato
| +  harmonic
| x  Mute note
============================================================================
Tap to rate this tab
# A B C D E F G H I J K L M N O P Q R S T U V W X Y Z