Song name
# A B C D E F G H I J K L M N O P Q R S T U V W X Y Z

Black Lungs - For Her tab

Song - For Her
Artist - Black Lungs
Album - Send Flowers


Intro:

e|------------------------------------------------------------------|
B|------------------------------------------------------------------|
G|--4-4-4---4-4-4---------------------------------------------------|
D|--4-4-4---4-4-4---4-4-4---4-4-4---2-2-2---2-2-2---2-2-2---2-2-2---|   x2
A|--2-2-2---2-2-2---4-4-4---4-4-4---2-2-2---2-2-2---2-2-2---2-2-2---|
E|------------------2-2-2---2-2-2---0-0-0---0-0-0---0-0-0---0-0-0---|
pm  . .     . .     . .     . .     . .     . .     . .     . .


Verse:

e|--------------------------------------------------------|
B|--------------------------------------------------------|
G|--4-4-4-4-4-4-------------------------------------------|
D|--4-4-4-4-4-4---4-4-4-4-4-4---2-2-2-2-2-2-2-2-2-2-2-2---|  x4
A|--2-2-2-2-2-2---4-4-4-4-4-4---2-2-2-2-2-2-2-2-2-2-2-2---|
E|----------------2-2-2-2-2-2---0-0-0-0-0-0-0-0-0-0-0-0---|

Pre-Chorus:

e|--------------------------------------|
B|--------------------------------------|
G|--6-6-6-6-6-6-6-6----9-9-9-9-9-9-9-9--|
D|--6-6-6-6-6-6-6-6----9-9-9-9-9-9-9-9--| x2
A|--4-4-4-4-4-4-4-4----7-7-7-7-7-7-7-7--|
E|--------------------------------------|

Chorus:
                                |1.-----------|2.----------|
e|------------------------------|-------------|------------|
B|------------------------------|-------------|------------|
G|--4-4-4-4-4-4-----------------|-------------|-9-9-9-9-9--|
D|--4-4-4-4-4-4---4-4-4-4-4-4---|2-2-2-2-2----|-9-9-9-9-9--|
A|--2-2-2-2-2-2---4-4-4-4-4-4---|2-2-2-2-2----|-7-7-7-7-7--|
E|----------------2-2-2-2-2-2---|0-0-0-0-0----|------------|

Lyrics:

When I start thinking this is only lust.
I must confess I'd be better on my own.
Then I start thinking this is really love.
And I confess I can't do this alone.
Don't look straight ahead look to the side.
Just keep me in the corner of your eye, until it's time to go again.
I keep this with me.
It's so bittersweet night after night.
Don't take this the wrong way darling.
You mean the world to me.
I just never want that and we can keep singing,
"Wedding cake and toothache equals love and pain".
I keep this with me.
It's so bittersweet night after night
Tap to rate this tab
 
# A B C D E F G H I J K L M N O P Q R S T U V W X Y Z