Song name
# A B C D E F G H I J K L M N O P Q R S T U V W X Y Z

Black Luxus - Sick Sad Little Game tab

Help us improve GuitareTab! Take a short survey!
Artist: Black Luxus
Song: Sick Sad Little Game
Album: Ambiguities
Drop-B (Dropped D tuned one an a half tones down).

Verse1
Db|-------------------------------------------------------------------|
Ab|-------------------------------------------------------------------|
E |-------------------------------------------------------------------|
B |---------------------------------7-5-------------------------------| 2x
Gb|------------3h4------------3h4---5-3-8-6--------------3h4--------8-|
B |-55-6p5-8p5-----55-6p5-8p5-----------8-6---55-6p5-8p5-----55-6p5-8-|


Pre-Chorus              3x
Db|------------------------|-------------|
Ab|------------------------|-------------|
E |------------------------|-------------|
B |------------------------|-------------|
Gb|-5---8------------------|-33333333-22-|
B |---6---6----8-6-8-9-8-6-|-33333333-22-|


Chorus              7x
Db|--------------------|------------------|
Ab|--------------------|------------------|
E |--------------------|------------------|
B |--------------------|------------------|
Gb|---4-5--------------|---4-5------------|
B |-5-----5---10-8-9-5-|-5-----5---10-8-9-|


Verse2
Db|-------------------------|------------------------|
Ab|-------------------------|------------------------|
E |-------------------------|------------------------|
B |-------------------------|------------------------|
Gb|------------3h4--------8-|-----------3h4--------8-|
B |-55-6p5-8p5-----55-6p5-8-|55-6p5-8p5-----55-6p5-8-|

Continued...
Db|-----------------------------------------------|
Ab|-----------------------------------------------|
E |-----------------------------------------------|
B |---------------------------------7-5-------5-5-|
Gb|------------3h4------------3h4---5-3-8-6---5-5-|
B |-55-6p5-8p5-----55-6p5-8p5-----------8-6---5-5-|

Interlude
Db|----------|
Ab|----------|
E |----------|
B |----5*----|
Gb|----------|
B |-5v----6v-|

Bridge
Db|------------------------------------------------------|
Ab|------------------------------------------------------|
E |------------------------------------------------------|
B |------------------------------------------------------|
Gb|------------------5-8-6-5-9-------------------5-3-----|
B |-5-6-5-6-5-6-8-8-------------5-6-5-6-5-6-8-8------8-6-|

Bridge pt2 (After Bass Break)
Db|-------------------------------|
Ab|-------------------------------|
E |-------------------------------|
B |-------------------------------|
Gb|-------------------------------|
B |-0--0-6-5--1-2-3--4-5-6--3-1-0-|

Outro
Db|---------------|---------------|---------------|----------|
Ab|---------------|---------------|---------------|----------|
E |---------------|---------------|---------------|----------|
B |---------------|---------------|---------------|----------|
Gb|---------------|---------------|---------------|--------0-|
B |-0-0-0---0-12*-|-0-0-0---0-12*-|-0-0-0---0-12*-|-0------0-|

End.

http://blackluxus.soundmue.org/ (official site)
http://www.myspace.com/blackluxus (official myspace)
Related for Sick Sad Little Game tab