Song name
# A B C D E F G H I J K L M N O P Q R S T U V W X Y Z

Black Moth Super Rainbow - Gold Splatter tab

Artist: Black Moth Super Rainbow
Album: Eating Us (Graveface Records 2009)
Song: Gold Splatter
Tabbed by witmachine@yahoo.com

Their new full length presentation for 2009, Eating Us, hightens the fidelity and 
that BMSR have become known for.
Recorded at Tarbox Road Studios, Eating Us marks the first time BMSR has ventured into a 
recording studio.

chords:
Am7  x02010
D/F# x04232

           Am7                    D/F#
Beautiful friend, you're my only friend
           Am7                 D/F#
Beautiful day, what a lovely fate
           Am7                        D/F#
Beautiful dream, you're my fucked up dream
           Am7                    D/F#
Sit in the ground, still look in the ground


(1:07-1:33)
        1   2   3   4   1   2   3   4   1   2   3   4   1   2   3   4
e |-----5---7-------5-------------------5---7-------5-----------7-5-----|
B |-7-8-----------------------------7-8-----------------------5-----8-7-|
G |---------------------------------------------------------------------|
D |---------------------------------------------------------------------|
A |---------------------------------------------------------------------|
E |---------------------------------------------------------------------|
    1   2   3   4   1   2   3   4   1   2   3   4   1   2   3   4
e |-------------------------7-5-------------------------------------|
B |-8---5-------7---------5-----8-7-8---5-------3---------------7-8-|
G |-----------------------------------------------------------------|
D |-----------------------------------------------------------------|
A |-----------------------------------------------------------------|
E |-----------------------------------------------------------------|


(1:34-2:32)
           Am7                    D/F#
Beautiful friend, you're my only friend
           Am7                    D/F#
Beautiful day, what a lovely fate
           Am7                    D/F#
Beautiful dream, you're my fucked up dream
           Am7                    D/F#
Sit in the ground, still look in the ground


(2:33-end)
    3   4   1   2   3   4   1   2   3   4   1   2   3   4   1   2   3   4
e |---------0---0---0------------------------------------------------------|
B |-------------------------1---1---1-------3---3---3----------------------|
G |-4---2-----------------------------------------------------------2---0--|
D |------------------------------------------------------------------------|
A |------------------------------------------------------------------------|
E |------------------------------------------------------------------------|

    1   2   3   4   1   2   3   4   1   2   3   4   1   2   3   4
e |-0---0---0------------------------------------------------------|
B |-----------------1---1---1-------3---3---3----------------------|
G |---------------------------------------------------------4---2--|
D |----------------------------------------------------------------|
A |----------------------------------------------------------------|
E |----------------------------------------------------------------|

you can also play the chords like this:
	Am7  302010
	D/F# 204232
Tap to rate this tab
# A B C D E F G H I J K L M N O P Q R S T U V W X Y Z