Song name
# A B C D E F G H I J K L M N O P Q R S T U V W X Y Z

Black Moth Super Rainbow - Neon Syrup For The Cemetery Sisters tab

---------------------------------------------------------------------------
      Neon Syrup For The Cemetery Sisters  - Black Moth Super Rainbow
---------------------------------------------------------------------------


Tabbed by: GenerallyBetter
Tuning:  Standard


Intro:	
	e|----------------------|
	B|----------------------|
	G|----------------------|
	D|-5---5---5---5--------|
	A|---5---5---5---5------|
	E|----------------------| x3

	 |----------------------|
	 |----------------------|
	 |----------------------|
	 |-5---5---5*-----------|
	 |---5---5--------------|
	 |----------------------| *Lasts the rest of the measure

Main Riff:
 	 |----------------------|----------------------|
 	 |----------------------|----------------------|
 	 |----------------------|----------------------|
 	 |-5---5---5---5--------|---5-----3---2--------|
 	 |---5---5---5---5\-----|-3---2-5---5---5------|
 	 |----------------------|----------------------|


---------------------------------------------------------------------------

---------------------------------------------------------------------------
Tap to rate this tab
 
# A B C D E F G H I J K L M N O P Q R S T U V W X Y Z