Song name
# A B C D E F G H I J K L M N O P Q R S T U V W X Y Z

Black Moth Super Rainbow - Hazy Field People tab

Black Moth at their best.

Main guitar bit ad infinitum:

e|------------------------------------------------------------------------------|
B|------------------------------------------------------------------------------|
G|------------------------------------------------------------------------------|
D|-----7----------7-7-------7-------------7---7---------------------------------|
A|---------5---------------------5----------------------------------------------|
E|-----7------7---7-7-------7---------7---7-------------------------------------|

e|-----------------------------------------------------------------------------|
B|-----------------------------------------------------------------------------|
G|-----------------------------------------------------------------------------|
D|----11----------11-11-----11-------11--11--11--------------------------------|
A|---------9---------------------9---------------------------------------------|
E|----10-----10---10-10-----10-- -10--10-10------------------------------------|

Synth bit: E D E D E A
Tap to rate this tab
 
# A B C D E F G H I J K L M N O P Q R S T U V W X Y Z