Song name
# A B C D E F G H I J K L M N O P Q R S T U V W X Y Z

Black Mountain - Stormy High tab

Artist: Black Mountain
Song: Stormy High

I liked the riff in this song and since nobody tabbed it yet I thought I might give it a try
All I could figure out was the riff after the intro though

/ slide
p pull off
h hammer on
* mute

-------------------------------------|----------------------|
-------------------------------------|----------------------|
-------------------------------------|x6--------------------|
-----------------------------------5-|----------------------|
---7///------7p5--5-7-----7p5--5h7--7|----------------------|
---------0-0----7-----0-0----7-------|----------------------|
         * *          * *
-------------------------------|-----------------------------|
-------------------------------|-----------------------------|
----------------------------2--|x2---------------------------|
-----4p2---2-4-----4p2--2h4--4-|-----------------------------|
---------4------------4--------|-----------------------------|
--2-2-----------2-2------------|-----------------------------|
  * *           * *
-------------------------------------|-----------------------|
-------------------------------------|-----------------------|
-------------------------------------|x2---------------------|
-----------------------------------5-|-----------------------|
---7///------7p5--5-7-----7p5--5h7--7|-----------------------|
---------0-0----7-----0-0----7-------|-----------------------|
         * *          * *
Tap to rate this tab
# A B C D E F G H I J K L M N O P Q R S T U V W X Y Z