Guitaretab - guitar tabs
Song name
# A B C D E F G H I J K L M N O P Q R S T U V W X Y Z

Black Mountain - Heart Of Snow tab

-------------------------------------------------------------------------------
			    Heart of Snow - Black Mountain
-------------------------------------------------------------------------------
Tabbed by:DEN1S 
Email:skateboardnito@gmail.com

Tuning:standart

Intro:C Em

C                             Em
Trickled down to the valley bellow
C                        Em
Heart of snow let go let go 
         Bb                     C
But your sad wings won't fly you home
   Gm
No more
[ Tab from: http://www.guitaretab.com/b/black-mountain/104169.html ]
Then:
             Repeat several times    then this a few times
e|--------------------------------||-----------------------------------------|
B|--------------------------------||-----------------------------------------|
G|--------------------------------||-----------------------------------------|
D|-----------------2--4--2--------||--3--3-3-3--5--5-5-5---------------------|
A|--2--4--5--4--5-----------5--4--||--3--3-3-3--5--5-5-5---------------------|
E|--------------------------------||--1--1-1-1--3--3-3-3---------------------|

Then back to intro

C                                       Em
Hellfire you're wrong our hopes had held high
C                                        Em
Hellfire you're wrong our hopes will not die
         Bb                         C          Gm
But your proud wings won't carry you home

Repeat first verse
Then, the last part:

Lay down your guitars... 
e|----------------------||---------------------------------------------------|
B|----------------------||---------------------------------------------------|
G|----------------------||---------------------------------------------------|
D|--7--7-7-7--7--7-7-7--||--3--3-3-3--5--5-5-5-------------------------------|
A|--7--7-7-7--7--7-7-7--||--3--3-3-3--5--5-5-5-------------------------------|
E|--5--5-5-5--5--5-5-5--||--1--1-1-1--3--3-3-3-------------------------------|

Last chord:A

END
Related for Heart Of Snow tab
Advertisement will be closed in 10 seconds