Song name
# A B C D E F G H I J K L M N O P Q R S T U V W X Y Z

Black Mountain - Dont Run Our Hearts Around tab

Intro:
e-----------------------------------|
b-----------------------------------|
g-------------------0-2-5-3-2-0-----|
d--3/5-5-5-3-3/5/-------------------|
a-----------------------------------|
e-----------------------------------|

Verse:
e---------------------------------------------------------------------------|
b---------------------------------------------------------------------------|
g-------------------------3-------------------------3-----------------------|
d-5-5-3-5-5-3-5-5-3-5-3-----5-5-3-5-5-3-5-5-3-5-3-----5-5-3-5-5-3-5-5-3-5-3-|
a-----------------------5-------------------------5-------------------------|
e---------------------------------------------------------------------------|

e--------------------------------|
b--------------------------------|
g----3-----------------3-5-------|
d------5-5-3-5-5-3---------3-----|
a--5---------------5-4-----------|
e--------------------------------|
Tap to rate this tab
# A B C D E F G H I J K L M N O P Q R S T U V W X Y Z