Song name
# A B C D E F G H I J K L M N O P Q R S T U V W X Y Z

Black Mountain - Wucan tab

Song: Wucan
Artist: Black Mountain
Album: In The Future (2008)
Tabbed by: Lucas K

Riff 1

e--------------------------------11-14b16r14-11--|
b--------------------------11-14-----------------|
g-----------------------13-----------------------|
d-----------------11-13--------------------------|
a---------9-11-13--------------------------------|
e-11---11----------------------------------------|

Riff 2

  slow bend
e------------------------------|
b------------------------------|
g-11b13~----8-11-8-11-8-11-8---|
d------------------------------|
a------------------------------|
e------------------------------|


Riff 3
                      [1-3]                 [4]
e----------------------l---------------------l-----------------------|
b----------------------l---------------------l-----------------------|
g----------------------l---------------------l-----------------------|
d----------------------l---------------------l-----------------------|
a------9------9~--11~--l------9------9~------l------9------9---------|
e-9-11---11-9----------l-9-11---11-9----11~--l-9-11---11-9----9--11--|


Riff 4 (during bridge/keyboard break)

   note in brackets is delay
e---------|
b--7-(7)--|
g--8-(8)--|
d--8-(8)--|
a---------|
e---------|

outro is riff 3 played to fade


| /  slide up
| \  slide down
| h  hammer-on
| p  pull-off
| ~  vibrato
| +  harmonic
| x  Mute note
Tap to rate this tab
 
# A B C D E F G H I J K L M N O P Q R S T U V W X Y Z