Song name
# A B C D E F G H I J K L M N O P Q R S T U V W X Y Z

Black Mountain - Wild Wind tab

Song: Wild Wind
Artist: Black Mountain
Album: "In the Future [2008]"

Tab by Devin Miller

Tuning: 1/2 Step Down --> Eb Ab Db Gb Bb eb

******************************************************************

CHORD REFERENCE (chord names are as if standard tuning, for ease):

    C    E    Bb   F    D7   D
e|--0----0---------1----0----2----|
B|--1----0----3----1----1----3----|
G|--0----1----3----2----2----2----|
D|--2----2----3----3----0----0----|
A|--3----2----1----3----x---------|
E|-------0---------1----2---------|


C                            E
      Oh, you can ride the wild wind

Bb                                 F
      and fight the demons at your door

C                           E
      Oh, you can wear a fresh face

F                              D7
      Sticky fingers, you want more

F                           D7
      Yes, you can hang for dear life

            C           D         F
Oh, but you know you'll hang for more

          C           D         F
Yeah, you know you'll hang for more


******************************************************************

GUITAR SOLO (acoustic chords written above):


             C                                F
e|----------------------------------12-------------------|
B|---1-3-s10-8~~~~--s15-13~~~~~--------15-13s-10~~~~~~~--|
G|-2-----------------------------14----------------------|
D|-------------------------------------------------------|
A|-------------------------------------------------------|
E|-------------------------------------------------------| x3

                D7                          F
e|----12-10-8---8h10~~~~~~~------8--10--s12-10~~~~~~~~~--|
B|-10------------------------10--------------------------|
G|-------------------------------------------------------|
D|-------------------------------------------------------|
A|-------------------------------------------------------|
E|-------------------------------------------------------|


******************************************************************

NOTATION LEGEND:


| s  slide
| h  hammer-on
| ~  vibrato

=======================================================================
Tap to rate this tab
# A B C D E F G H I J K L M N O P Q R S T U V W X Y Z