Song name
# A B C D E F G H I J K L M N O P Q R S T U V W X Y Z

Black Mountain - Wucan tab

Artist: Black Mountain
Song: Wucan

I made this tab before I already saw one existed. There are slight differences between 
and the other posted here on UG but I feel mine is a little more accurate.

This is my first tab and I didn't really give much time into structuring it out but if 
use your ears, you can figure it out just fine. This song is easy to pull off and fun to play.

If you're curious on how to get the "sound" for this song, I managed to get a good tone 
a Peavey Classic 30, Squire Strat, EH #1 Echo and an American Big Muff.


Intro/Main Riff
|-----------------------------------------14b15--11~---|
|----------------------------------11h14---------------|
|---------------------------11h13----------------------|
|--------------------11h13-----------------------------|
|--------------9h11------------------------------------|
|--11-----9h-11----------------------------------------|

Riff# 2
|------------------------------------------------------|
|------------------------------------------------------|
|--13b14--13~---------11----11----11-------------------|
|------------------------13----13----13----13~---------|
|------------------------------------------------------|
|------------------------------------------------------|


This is the full Fuzz Riff in the middle of the song and also serves as the outro.
|----------------------|
|----------------------|
|----------------------|
|----------------------|
|-------9--------9-11~-|
|--11----11-9----------|

|---------------------|
|---------------------|
|---------------------|
|---------------------|
|-------9--------9----|
|--11----11-9-----11--|

|-----------------------|
|-----------------------|
|-----------------------|
|-----------------------|
|-------9--------9-11~--|
|--11----11-9-----------|

|---------------------------|
|---------------------------|
|---------------------------|
|---------------------------|
|-------9--------9----------|
|--11----11-9-------9--11~--|

During the keyboard break down play the following chord with an upstroke with slight 
to the beat of the song.
|--6
|--7
|--8
|--8
|--6
|---
Tap to rate this tab
# A B C D E F G H I J K L M N O P Q R S T U V W X Y Z