Song name
# A B C D E F G H I J K L M N O P Q R S T U V W X Y Z

Black Mountain - Dont Run Our Hearts Around tab

Intro:

-----------------------------------|
-----------------------------------|
--x-----x-x-5-x-----0--2--5--3b-/2-|
--5-----5-5-5-5--------------------|
--5-----5-5-3-5--------------------|
--3-----3-3-3-3--------------------|

Verse/Chorus:

-palm mute for verse. play slow.
-play loud and fast for final chorus.

----------------------------------------------------------------|
----------------------------------------------------------------|
----------------------------------------------------------------|           x4
--x---x---x---x---x---x---x----x---x---x---x---x---x------------|
--x---x---x---x---x---x---x----x---x---x---x---x---x------------|
--15--15--13--15--15--13--15--15--13--15--13--10--13------------|


-------------|
-------------|
------3-5----|
--5-3-----3--|
-------------|
-------------|

BAND WEBPAGE: http://cdn.scratchrecords.com/pages.cfm?ID=192
Tap to rate this tab
 
# A B C D E F G H I J K L M N O P Q R S T U V W X Y Z