Song name
# A B C D E F G H I J K L M N O P Q R S T U V W X Y Z

Black My Heart - Did It All tab

-------------------------------------------------------------------------------
			     DID IT ALL - BLACK MY HEART
-------------------------------------------------------------------------------
Tabbed by:Joe
Email:Allshallperish23@yahoo.com

Tuning:Dropped B


Listen to the song for timing. All the notes are right




C#|---------------------------------------------------------------------------|
G#|---------------------------------------------------------------------------|
E |---------------------------------------------------------------------------|
B |-0---------------------------------0-------------------8-5-----------------| 
F#|-0---------------------------------0-------------------6-3-----------------|
B |-0---------------------------------0---------------------------------------|

C#|---------------------------------------------------------------------------|
G#|---------------------------------------------------------------------------|
E |---------------------------------------------------------------------------|
B |-0------------8-5--(three times)------0---8-8-8----------------------------|
F#|-0------------6-3---------------------0---6-6-6----------------------------|
B |-0------------------------------------0------------------------------------|

C#|---------------------------------------------------------------------------|
G#|---------------------------------------------------------------------------|
E |---------------------------------------------------------------------------|
B |------------------------8-8-5/8---------------------8-8-5/8----------------|
F#|-0----------------------6-6-3/6---------------------6-6-3/6----------------|
B |-0--000-000-000-000-000---------000-000-000-000-000------------------------|

C#|---------------------------------------------------------------------------|
G#|---------------------------------------------------------------------------|
E |---------------------------------------------------------------------------|
B |---------------------8-8-5/8-------------8---5---8-------------------------|
F#|---------------------6-6-3/6-------------6---3---6-------------------------|
B |-000-000-000-000-000---------000-000-000-----------------------------------|

C#|---------------------------------------------------------------------------|
G#|---------------------------------------------------------------------------|
E |---------------------------------------------------------------------------|
B |------------------------8-8-5/8---------------------8-8-5/8----------------|
F#|-0----------------------6-6-3/6---------------------6-6-3/6----------------|
B |-0--000-000-000-000-000---------000-000-000-000-000------------------------|

C#|---------------------------------------------------------------------------|
G#|---------------------------------------------------------------------------|
E |---------------------------------------------------------------------------|
B |---------------------8-8-5/8-------------8---5---8-----0-------------------|
F#|---------------------6-6-3/6-------------6---3---6-----0-------------------|
B |-000-000-000-000-000---------000-000-000---------------0-------------------|






| /  slide up
| \  slide down


===============================================================================

	
Tap to rate this tab
 
# A B C D E F G H I J K L M N O P Q R S T U V W X Y Z