Song name
# A B C D E F G H I J K L M N O P Q R S T U V W X Y Z

Black N Blue - Autoblast tab

e[----------------------------------------------------------]
B[----------------------------------------------------------]
G[---------2-2-----------2-1--------------------------------]
D[---4-2-4-2-2-4---------2-2-4------------------------------]
A[---4-2-4-----4-x-x-x-x-----2------------------------------]
E[----------------------------------------------------------]


e[----------------------------------------------------------]
B[----------------------------------------------------------]
G[---------2-2-----------2-1--------------------------------]
D[---4-2-4-2-2-4---------2-2-6------------------------------]
A[---4-2-4-----4-x-x-x-x-----4------------------------------]
E[----------------------------------------------------------]


e[----------------------------------------------------------]
B[-------------------14-16b-14------------------------------]
G[---------2-2---/16-----------16-2-1-----------------------]
D[---4-2-4-2-2-4------------------2-2-4---------------------]
A[---4-2-4-----4----------------------2---------------------]
E[----------------------------------------------------------]


e[----------------------------------------------------------]
B[-------------------14-16b-14------------------------------]
G[---------2-2---/16-----------16-2-1-----------------------]
D[---4-2-4-2-2-4------------------2-2-6---------------------]
A[---4-2-4-----4----------------------4---------------------]
E[----------------------------------------------------------]

Then its some sort of scale but I cant figure it out…if you find errors just
email me at jmhr116@yahoo.com
Tap to rate this tab
# A B C D E F G H I J K L M N O P Q R S T U V W X Y Z