Song name
# A B C D E F G H I J K L M N O P Q R S T U V W X Y Z

Black N Blue - I Want It All I Want It Now tab

Help us improve GuitareTab! Take a short survey!
Kick ass solo from Tommy Thayer. Not 100% on the scale up because it's a harmony but this is near enough.
Steve

E|--7h10p7-10b(12)(12)(12)bd-7----------------|
B|--------------------------------------------|
G|--------------------------------------------|
D|--------------------------------------------|
A|--------------------------------------------|
E|--------------------------------------------|


E|--7-7-8-8b9bd8-p7-8------------------|
B|-------------------------------------|
G|-------------------------------------|
D|-------------------------------------|
A|-------------------------------------|
E|-------------------------------------|

E|--------------------------------------|
B|--12h15p12-15b-12---------------------|
G|--------------------------------------|
D|--------------------------------------|
A|--------------------------------------|
E|--------------------------------------|

E|-------------------------------------------------|
B|-------------------------------------------------|
G|--7-6-7--9-8-9-8-9-8-9-8-9-8-9b------------------|
D|--------------------------------------------9----|
A|-------------------------------------------------|
E|-------------------------------------------------|

E|---------------------------------|
B|--10b-10b-7h10-15----------------|
G|---------------------------------|
D|---------------------------------|
A|---------------------------------|
E|---------------------------------|

E|--15-14-12-------------------------------------|
B|----------------15-13-12----------------15b----|
G|------------------------------15-14-12---------|
D|-----------------------------------------------|
A|-----------------------------------------------|
E|-----------------------------------------------|

E|-------------------------------------22b(22)(22)(22)(22)(22)(22)(22)bd-|
B|--15b(bd)-14--20b(bd)19------------------------------------------------|
G|-----------------------------------------------------------------------|
D|-----------------------------------------------------------------------|
A|-----------------------------------------------------------------------|
E|-----------------------------------------------------------------------|
Related for I Want It All I Want It Now tab