Song name
# A B C D E F G H I J K L M N O P Q R S T U V W X Y Z

Black Nielson - Tteezzer tab

Help us improve GuitareTab! Take a short survey!
this is my m8s uncles band
black nielson there fucking amazing
and i suggest u buy the album the seahorse boe
i learnt this song by ear.i got most of the song. its
pretty simple.i did it in C# tuning
Tteezzer
listen to the cd for the rhythm

this is a link to something bout black nielson cuz know one actully knows who this great 
are
 intro (wah wah)
 |----------------|
 |----------------|
 |----------------|
 |----------------|
 |--55555555555555
 |--33333333333333


 verse rhythm not shown
 |-------------------------------------------------|
 |-------------------------------------------------|
 |-------------------------------------------------|
 |-------------------------------------------------|
 |-------------------------------------------------|
 |-5-5-5-5-5-5-5-5-2-2-2-2-2-2-2-2-3-3-3-3-3-3-3-3-|
 |-3-3-3-3-3-3-3-3-0-0-0-0-0-0-0-0-1-1-1-1-1-1-1-1-|


 chorus chords (wah wah)
 ive havent shown how many times you strum the chords

 |-------------------|
 |-------------------|
 |-12--16--14--9--10-|
 |-------------------|
 |-10--14--12--7--8--|
 |-------------------|

 bridge no guitar
 listen to the song for the order
Related for Tteezzer tab