Song name
# A B C D E F G H I J K L M N O P Q R S T U V W X Y Z

Black Oak Arkansas - Memories At The Window tab

Guitar 1


     W                   W                   W                 
E||-------------------|-------------------|-------------------|
B||-------------------|-------------------|-------------------|
G||-------------------|-------------------|-------------------|
D||-------------------|-------------------|-------------------|
A||-------------------|-------------------|-------------------|
E||-------------------|-------------------|-------------------|


  W                   W                   W                   W                 
-------------------|-------------------|-------------------|-------------------|
-------------------|-------------------|-------------------|-------------------|
-------------------|-------------------|-------------------|-------------------|
-------------------|-------------------|-------------------|-------------------|
-------------------|-------------------|-------------------|-------------------|
-------------------|-------------------|-------------------|-------------------|


  W                   W                   W                   W                 
-------------------|-------------------|-------------------|-------------------|
-------------------|-------------------|-------------------|-------------------|
-------------------|-------------------|-------------------|-------------------|
-------------------|-------------------|-------------------|-------------------|
-------------------|-------------------|-------------------|-------------------|
-------------------|-------------------|-------------------|-------------------|


  W                   W                   W                 
-------------------|-------------------|-------------------|
-------------------|-------------------|-------------------|
-------------------|-------------------|-------------------|
-------------------|-------------------|-------------------|
-------------------|-------------------|-------------------|
-------------------|-------------------|-------------------|


  H          H            H         E    Q.         H          H          
-----------------------|-------------------------|-----------------------|
-----------------------|-------------------------|-----------------------|
--9~--------11~--------|--9~--------9h--11~------|--9~--------11~--------|
-----------------------|-------------------------|-----------------------|
-----------------------|-------------------------|-----------------------|
-----------------------|-------------------------|-----------------------|


  H         H             H          H             H          H          
----------------------|------------------------|------------------------|
----------------------|-------------10~--------|--12~--------10~--------|
--9~--------9~--------|--11~-------------------|------------------------|
----------------------|------------------------|------------------------|
----------------------|------------------------|------------------------|
----------------------|------------------------|------------------------|


   H             H             H            H          
---------------------------|--------------------------|
-------------10g12~--------|--10~---------------------|
--11~----------------------|-------------9g11~--------|
---------------------------|--------------------------|
---------------------------|--------------------------|
---------------------------|--------------------------|


  H            H            H         E    Q.         H          H          
-------------------------|-------------------------|-----------------------|
-------------------------|-------------------------|-----------------------|
--9~--------9g11~--------|--9~--------9h--11~------|--9~--------11~--------|
-------------------------|-------------------------|-----------------------|
-------------------------|-------------------------|-----------------------|
-------------------------|-------------------------|-----------------------|


  H         H             H          H             H          H          
----------------------|------------------------|------------------------|
----------------------|-------------10~--------|--12~--------10~--------|
--9~--------9~--------|--11~-------------------|------------------------|
----------------------|------------------------|------------------------|
----------------------|------------------------|------------------------|
----------------------|------------------------|------------------------|


   H             H             H         E    E   Q      
---------------------------|----------------------------|
-------------10g12~--------|--10~----------------10~----|
--11~----------------------|-------------9h--11---------|
---------------------------|----------------------------|
---------------------------|----------------------------|
---------------------------|----------------------------|


  H          H            H         E    E   Q        H          H          
-----------------------|---------------------------|-----------------------|
-----------------------|--------------------10~----|-----------------------|
--9~--------11~--------|--9~--------9h--11---------|--9~--------11~--------|
-----------------------|---------------------------|-----------------------|
-----------------------|---------------------------|-----------------------|
-----------------------|---------------------------|-----------------------|


  H         H             H          H             H          H          
----------------------|------------------------|------------------------|
----------------------|-------------10~--------|--12~--------10~--------|
--9~--------9~--------|--11~-------------------|------------------------|
----------------------|------------------------|------------------------|
----------------------|------------------------|------------------------|
----------------------|------------------------|------------------------|


   H          H             H           Q     Q        W                  
------------------------|--------------------------|---------------------|
-------------10~--------|--12br--------10----12----|--10~----------------|
--11~-------------------|--------------------------|---------------------|
------------------------|--------------------------|---------------------|
------------------------|--------------------------|---------------------|
------------------------|--------------------------|---------------------|


  Q     Q     Q     Q        W                   W                 
--------------------------|-------------------|-------------------|
--L~----L~----L~----L~----|-------------------|-------------------|
--------------------------|-------------------|-------------------|
--------------------------|-------------------|-------------------|
--------------------------|-------------------|-------------------|
--------------------------|-------------------|-------------------|


  H            H            H         E    Q.          H             H          
-------------------------|-------------------------|---------------------------|
-------------------------|-------------------------|--10~--------10g12~--------|
--9~--------9g11~--------|--9~--------9h--11~------|---------------------------|
-------------------------|-------------------------|---------------------------|
-------------------------|-------------------------|---------------------------|
-------------------------|-------------------------|---------------------------|


   H        H              H          H            H           Q     Q     
---------------------|-------------------------|--------------------------|
--10-----------------|---------------10--------|--12br--------10----12----|
------------9--------|--9g11~------------------|--------------------------|
---------------------|-------------------------|--------------------------|
---------------------|-------------------------|--------------------------|
---------------------|-------------------------|--------------------------|


   H            H            H         E    Q.         H         E    Q.       
--------------------------|-------------------------|-------------------------|
--10~---------------------|-------------------------|-------------------------|
-------------9g11~--------|--9~--------9h--11~------|--9~--------9h--11~------|
--------------------------|-------------------------|-------------------------|
--------------------------|-------------------------|-------------------------|
--------------------------|-------------------------|-------------------------|


  H        E    E   Q        W                    H         E    E   Q      
--------------------------|--------------------|---------------------------|
-------------------10~----|--------------------|--------------------10~----|
--9--------9h--11---------|--9~----------------|--L~--------9h--11---------|
--------------------------|--------------------|---------------------------|
--------------------------|--------------------|---------------------------|
--------------------------|--------------------|---------------------------|


  H            H            H         H             H          H          
-------------------------|----------------------|------------------------|
-------------------------|----------------------|-------------10~--------|
--9~--------9g11~--------|--9~--------9~--------|--11~-------------------|
-------------------------|----------------------|------------------------|
-------------------------|----------------------|------------------------|
-------------------------|----------------------|------------------------|


   H          H               H            H             H          Q     Q     
------------------------|----------------------------|-------------------------|
--12~--------10~--------|---------------8g10~--------|--12~--------10----------|
------------------------|--9g11~---------------------|-------------------11----|
------------------------|----------------------------|-------------------------|
------------------------|----------------------------|-------------------------|
------------------------|----------------------------|-------------------------|


  H         E    E   Q        H         E    E   Q      
---------------------------|---------------------------|
--------------------10~----|--------------------10~----|
--9~--------9h--11---------|--9~--------9h--11---------|
---------------------------|---------------------------|
---------------------------|---------------------------|
---------------------------|---------------------------|


  H            H            H         H             H          H          
-------------------------|----------------------|------------------------|
-------------------------|----------------------|-------------10~--------|
--9~--------9g11~--------|--9~--------9~--------|--11~-------------------|
-------------------------|----------------------|------------------------|
-------------------------|----------------------|------------------------|
-------------------------|----------------------|------------------------|


   H          H               H             H          
------------------------|-----------------------------|
--12~--------10~--------|---------------10g12~--------|
------------------------|--9g11~----------------------|
------------------------|-----------------------------|
------------------------|-----------------------------|
------------------------|-----------------------------|


   H         E    E   Q        H          H          
----------------------------|-----------------------|
--10~----------------10~----|-----------------------|
-------------9h--11---------|--9~--------11~--------|
----------------------------|-----------------------|
----------------------------|-----------------------|
----------------------------|-----------------------|


  H         E    E   Q        H          H            H         H          
---------------------------|-----------------------|----------------------|
--------------------10~----|-----------------------|----------------------|
--9~--------9h--11---------|--9~--------11~--------|--9~--------9~--------|
---------------------------|-----------------------|----------------------|
---------------------------|-----------------------|----------------------|
---------------------------|-----------------------|----------------------|


   H          H             H          H             H          H          
------------------------|------------------------|------------------------|
-------------10~--------|--12~--------10~--------|-------------10~--------|
--11~-------------------|------------------------|--11~-------------------|
------------------------|------------------------|------------------------|
------------------------|------------------------|------------------------|
------------------------|------------------------|------------------------|


   H        E    E   Q        H          H            H         E    Q.       
---------------------------|-----------------------|-------------------------|
--12----------------10~----|-----------------------|-------------------------|
------------9h--11---------|--9~--------11~--------|--9~--------9h--11~------|
---------------------------|-----------------------|-------------------------|
---------------------------|-----------------------|-------------------------|
---------------------------|-----------------------|-------------------------|


   H          H             H          H            H            H          
------------------------|------------------------|-------------------------|
--10~--------12~--------|--10~-------------------|-------------------------|
------------------------|-------------11~--------|--9~--------9g11~--------|
------------------------|------------------------|-------------------------|
------------------------|------------------------|-------------------------|
------------------------|------------------------|-------------------------|


  H         E    Q.          H             H             H        H         
-------------------------|---------------------------|---------------------|
-------------------------|--10~--------10g12~--------|--10-----------------|
--9~--------9h--11~------|---------------------------|------------9--------|
-------------------------|---------------------------|---------------------|
-------------------------|---------------------------|---------------------|
-------------------------|---------------------------|---------------------|


     H          H            H           Q     Q        H            H          
-------------------------|--------------------------|--------------------------|
---------------10--------|--12br--------10----12----|--10~---------------------|
--9g11~------------------|--------------------------|-------------9g11~--------|
-------------------------|--------------------------|--------------------------|
-------------------------|--------------------------|--------------------------|
-------------------------|--------------------------|--------------------------|


   H         E  Q.        H           H           H         Q    Q     
-----------------------|-----------------------|----------------------|
--10~------------------|-----------------------|----------------------|
-----------------------|-----------------------|----------------------|
-----------------------|-----------------------|--9--------11----9----|
-----------------------|--7--------9g11--------|----------------------|
-----------------------|-----------------------|----------------------|


  H           H           H         Q    Q       H          H         
-----------------------|----------------------|----------------------|
-----------------------|----------------------|----------------------|
-----------------------|----------------------|----------------------|
-----------------------|--9--------11----9----|-----------7g9--------|
--7--------9g11--------|----------------------|--5-------------------|
-----------------------|----------------------|----------------------|


  H          H           H          H           H          Q    Q     
----------------------|----------------------|-----------------------|
----------------------|----------------------|-----------------------|
-----------7g9--------|--7-------------------|-----------------------|
--7-------------------|-----------7g9--------|--7---------------7----|
----------------------|----------------------|-----------7g9---------|
----------------------|----------------------|-----------------------|


  H           H           H         Q    Q       H           H         
-----------------------|----------------------|-----------------------|
-----------------------|----------------------|-----------------------|
-----------------------|----------------------|-----------------------|
-----------------------|--9--------11----9----|-----------------------|
--7--------9g11--------|----------------------|--7--------9g11--------|
-----------------------|----------------------|-----------------------|


  H         Q    Q       H          H           H          H         
----------------------|----------------------|----------------------|
----------------------|----------------------|----------------------|
----------------------|----------------------|-----------7g9--------|
--9--------11----9----|-----------7g9--------|--7-------------------|
----------------------|--5-------------------|----------------------|
----------------------|----------------------|----------------------|


  H          H           H          Q    Q       W                 
----------------------|-----------------------|-------------------|
----------------------|-----------------------|-------------------|
--7-------------------|-----------------------|-------------------|
-----------7g9--------|--7---------------7----|--7----------------|
----------------------|-----------7g9---------|-------------------|
----------------------|-----------------------|-------------------|


  H.           Q         W                   H.            Q      
---------------------|--------------------|---------------12S----|
---------------7S----|--10----------------|----------------------|
---------------------|--------------------|----------------------|
---------------------|--------------------|----------------------|
---------------------|--------------------|----------------------|
---------------------|--------------------|----------------------|


   W                   H.            Q         W                 
--17----------------|---------------17S----|--29----------------|
--------------------|----------------------|--------------------|
--------------------|----------------------|--------------------|
--------------------|----------------------|--------------------|
--------------------|----------------------|--------------------|
--------------------|----------------------|--------------------|


  H.            Q         W                   H        E   E    Q     
---------------17S----|--29----------------|-------------------------|
----------------------|--------------------|--------------15S--10----|
----------------------|--------------------|-------------------------|
----------------------|--------------------|-------------------------|
----------------------|--------------------|-------------------------|
----------------------|--------------------|-------------------------|


   H          Q     E      E     E.  S  Q.      E    Q     
------------------------------|--------10-----------------|
-------------10--------10g12--|--L-------------10S--12----|
--11~--------------11---------|---------------------------|
------------------------------|---------------------------|
------------------------------|---------------------------|
------------------------------|---------------------------|


  H         E   Q    E      Q    E.   S Q     E    E   
--8----------------------|----------------------------|
-----------10S--8--------|-------8~-----8~------------|
---------------------9~--|--L-----------------9S--11--|
-------------------------|----------------------------|
-------------------------|----------------------------|
-------------------------|----------------------------|


   S S  Q     E   Q     E   E      Q     Q.     Q    E    
--------------------------------|-------10-----------8S--|
-------10~----x--10~----x--10~--|--L------------8--------|
---L----------------------------|------------------------|
--------------------------------|------------------------|
--------------------------------|------------------------|
--------------------------------|------------------------|


  E   E    E  E   E   E  Q       Q    Q    Q     E   E    
--L--(0)----------------------|------------8~------------|
----------10-----10S--8-------|--8------------------11~--|
-------------------------9----|--------------------------|
------------------------------|--------------------------|
------------------------------|--------------------------|
------------------------------|--------------------------|


  Q    Q     Q     Q        Q    Q      Q     Q       E  E.  S E  Q.      E   
-------------------------|--------------------7----|-----5-------------------|
--L----5S----3S----2S----|--3-----------8----------|-----------5--7S------0--|
-------------3S----2S----|--3----5S----(8)---------|-------------------------|
-------------------------|-------------------------|-------------------------|
-------------------------|-------------------------|-------------------------|
-------------------------|-------------------------|-------------------------|


  E  E   E.  S Q    Q       W                   H.           S E.    
---------------5----7----|--5----------------|----------------------|
-----5S--7---------------|-------------------|-----------------8S---|
-------------------------|-------------------|----------------------|
-------------------------|-------------------|----------------------|
-------------------------|-------------------|----------------------|
-------------------------|-------------------|----------------------|


   W                    W                       W                 
---------------------|-------------------|--12g17----------------|
--10~----------------|-------------------|-----------------------|
---------------------|-------------------|-----------------------|
---------------------|-------------------|-----------------------|
---------------------|-------------------|-----------------------|
---------------------|-------------------|-----------------------|


  H.           E.   S      W                   H.           E.   S   
-------------------17S-|--29----------------|-------------------17S-|
-----------------------|--------------------|-----------------------|
-----------------------|--------------------|-----------------------|
-----------------------|--------------------|-----------------------|
-----------------------|--------------------|-----------------------|
-----------------------|--------------------|-----------------------|


   H         E   E  E  E      H          E   Q.        
--29--------12--10-----x--|---------------------------|
--------------------------|--12~--------10------------|
--------------------------|-----------------11S~------|
--------------------------|---------------------------|
--------------------------|---------------------------|
--------------------------|---------------------------|


  H            H            H         E    Q.         H         E    Q.       
-------------------------|-------------------------|-------------------------|
-------------------------|-------------------------|-------------------------|
--9~--------9g11~--------|--9~--------9h--11~------|--9~--------9h--11~------|
-------------------------|-------------------------|-------------------------|
-------------------------|-------------------------|-------------------------|
-------------------------|-------------------------|-------------------------|


  H         H            E    Q.       Q    Q       W                 
----------------------|--------------------------|-------------------|
----------------------|--------------------------|-------------------|
--9~--------9~--------|--9h--11~------11---------|-------------------|
----------------------|--------------------------|-------------------|
----------------------|--------------------------|-------------------|
----------------------|--------------------------|-------------------|


  W                    E   E  E   H          E      W                  
-------------------|----------------------------|---------------------|
-------------------|--12--10-----12br--------L--|--10~----------------|
-------------------|----------------------------|---------------------|
-------------------|----------------------------|---------------------|
-------------------|----------------------------|---------------------|
-------------------|----------------------------|---------------------|


   W                    W                    W                 
--------------------|---------------------|-------------------|
---L----------------|--14~----------------|--L----------------|
--------------------|---------------------|-------------------|
--------------------|---------------------|-------------------|
--------------------|---------------------|-------------------|
--------------------|---------------------|-------------------|


   H         H           H        H           H        H         
----------------------|--------------------|--------------------|
--15~-----------------|--------------------|--------------------|
----------------------|--------------------|--------------------|
----------------------|--------------------|--------------------|
----------------------|--------------------|--------------------|
----------------------|--------------------|--------------------|


      E   E  E   E   E   E   E  E      W                  
----------------12b-----12--10-----|---------------------|
--10g12--10------------------------|--12b----------------|
-----------------------------------|---------------------|
-----------------------------------|---------------------|
-----------------------------------|---------------------|
-----------------------------------|---------------------|


  Q      H.                W                   W                 
------------------------|-------------------|-------------------|
--L----(14)~------------|--L----------------|-------------------|
------------------------|-------------------|-------------------|
------------------------|-------------------|-------------------|
------------------------|-------------------|-------------------|
------------------------|-------------------|-------------------|


  W                   W                   W                 
-------------------|-------------------|-------------------|
-------------------|-------------------|-------------------|
-------------------|-------------------|-------------------|
-------------------|-------------------|-------------------|
-------------------|-------------------|-------------------|
-------------------|-------------------|-------------------|


  E    E   E    E   E    E   Q          W                  
----------------------------12br----|---------------------|
----------10h--12--10h--12----------|--10~----------------|
--9h--11----------------------------|---------------------|
------------------------------------|---------------------|
------------------------------------|---------------------|
------------------------------------|---------------------|


  Q     Q     Q     Q        W                                     
--------------------------|-------------------|-------------------|
--L~----L~----L~----L~----|--L----------------|-------------------|
--------------------------|-------------------|-------------------|
--------------------------|-------------------|-------------------|
--------------------------|-------------------|-------------------|
--------------------------|-------------------|-------------------|


  H           H            H         E    Q.         Q     Q      E    Q.      
------------------------|-------------------------|---------------------------|
------------------------|-------------------------|-------10~----10h--12------|
-----------9g11~--------|--9~--------9h--11~------|---------------------------|
------------------------|-------------------------|---------------------------|
------------------------|-------------------------|---------------------------|
------------------------|-------------------------|---------------------------|


   H         E   Q.         H             H            H         E    Q.      
------------------------|--10~--------10g12--------|--10--------12h--14------|
--10--------10--12------|--------------------------|-------------------------|
------------------------|--------------------------|-------------------------|
------------------------|--------------------------|-------------------------|
------------------------|--------------------------|-------------------------|
------------------------|--------------------------|-------------------------|


   W                    H        H          
--17~----------------|--L-----------------||
---------------------|--------------------||
---------------------|--------------------||
---------------------|--------------------||
---------------------|--------------------||
---------------------|--------------------||










Guitar 2



     W                   W                   W                 
E||-------------------|-------------------|-------------------|
B||-------------------|-------------------|-------------------|
G||-------------------|-------------------|-------------------|
D||-------------------|-------------------|-------------------|
A||-------------------|-------------------|-------------------|
E||-------------------|-------------------|-------------------|


  W                   W                   W                   W                 
-------------------|-------------------|-------------------|-------------------|
-------------------|-------------------|-------------------|-------------------|
-------------------|-------------------|-------------------|-------------------|
-------------------|-------------------|-------------------|-------------------|
-------------------|-------------------|-------------------|-------------------|
-------------------|-------------------|-------------------|-------------------|


  W                   W                   W                   W                 
-------------------|-------------------|-------------------|-------------------|
-------------------|-------------------|-------------------|-------------------|
-------------------|-------------------|-------------------|-------------------|
-------------------|-------------------|-------------------|-------------------|
-------------------|-------------------|-------------------|-------------------|
-------------------|-------------------|-------------------|-------------------|


  W                   W                   Q    E  E  Q    E  E   
-------------------|-------------------|------------------------|
-------------------|-------------------|------------------------|
-------------------|-------------------|------------------------|
-------------------|-------------------|------------------------|
-------------------|-------------------|------------------------|
-------------------|-------------------|------------------------|


  Q    E  E  Q    E  E     E  E  E  E  Q    E  E     Q    E  E  Q    E  E   
------------------------|-------------------------|------------------------|
--2----x--2--2----x--2--|--x--2--x--2--2----x--2--|--2----x--2--2----x--2--|
--2----x--2--2----x--2--|--x--2--x--2--2----x--2--|--2----x--2--2----x--2--|
--2----x--2--2----x--2--|--x--2--x--2--2----x--2--|--2----x--2--2----x--2--|
--0----x--0--0----x--0--|--x--0--x--0--0----x--0--|--0----x--0--0----x--0--|
------------------------|-------------------------|------------------------|


  E  E  E  E  Q    E  E     Q    E  E  Q    E  E     E  E  E  E  Q    E  E   
-------------------------|------------------------|-------------------------|
--x--2--x--2--2----x--2--|--3----x--3--3----x--3--|--x--3--x--3--3----x--3--|
--x--2--x--2--2----x--2--|--4----x--4--4----x--4--|--x--4--x--4--4----x--4--|
--x--2--x--2--2----x--2--|--4----x--4--4----x--4--|--x--4--x--4--4----x--4--|
--x--0--x--0--0----x--0--|--2----x--2--2----x--2--|--x--2--x--2--2----x--2--|
-------------------------|------------------------|-------------------------|


  Q    E  E  Q    E  E     E  E  E  E  Q    E  E     Q    E  E  Q    E  E   
------------------------|-------------------------|------------------------|
--3----x--3--3----x--3--|--x--3--x--3--3----x--3--|--2----x--2--2----x--2--|
--4----x--4--4----x--4--|--x--4--x--4--4----x--4--|--2----x--2--2----x--2--|
--4----x--4--4----x--4--|--x--4--x--4--4----x--4--|--2----x--2--2----x--2--|
--2----x--2--2----x--2--|--x--2--x--2--2----x--2--|--0----x--0--0----x--0--|
------------------------|-------------------------|------------------------|


  E  E  E  E  Q    E  E     Q    E  E  Q    E  E     E  E  E  E  Q    E  E   
-------------------------|------------------------|-------------------------|
--x--2--x--2--2----x--2--|--2----x--2--2----x--2--|--x--2--x--2--2----x--2--|
--x--2--x--2--2----x--2--|--2----x--2--2----x--2--|--x--2--x--2--2----x--2--|
--x--2--x--2--2----x--2--|--2----x--2--2----x--2--|--x--2--x--2--2----x--2--|
--x--0--x--0--0----x--0--|--0----x--0--0----x--0--|--x--0--x--0--0----x--0--|
-------------------------|------------------------|-------------------------|


  Q    E  E  Q    E  E     E  E  E  E  Q    E  E     Q    E  E  Q    E  E   
------------------------|-------------------------|------------------------|
--3----x--3--3----x--3--|--x--3--x--3--3----x--3--|--3----x--3--3----x--3--|
--4----x--4--4----x--4--|--x--4--x--4--4----x--4--|--4----x--4--4----x--4--|
--4----x--4--4----x--4--|--x--4--x--4--4----x--4--|--4----x--4--4----x--4--|
--2----x--2--2----x--2--|--x--2--x--2--2----x--2--|--2----x--2--2----x--2--|
------------------------|-------------------------|------------------------|


  E  E  E  E  Q    E  E     Q    E  E  Q    E  E     E  E  E  E  Q    E  E   
-------------------------|------------------------|-------------------------|
--x--3--x--3--3----x--3--|--2----x--2--2----x--2--|--x--2--x--2--2----x--2--|
--x--4--x--4--4----x--4--|--2----x--2--2----x--2--|--x--2--x--2--2----x--2--|
--x--4--x--4--4----x--4--|--2----x--2--2----x--2--|--x--2--x--2--2----x--2--|
--x--2--x--2--2----x--2--|--0----x--0--0----x--0--|--x--0--x--0--0----x--0--|
-------------------------|------------------------|-------------------------|


  Q    E  E  Q    E  E     E  E  E  E  Q    E  E     Q    E  E  Q    E  E   
------------------------|-------------------------|------------------------|
--2----x--2--2----x--2--|--x--2--x--2--2----x--2--|--3----x--3--3----x--3--|
--2----x--2--2----x--2--|--x--2--x--2--2----x--2--|--4----x--4--4----x--4--|
--2----x--2--2----x--2--|--x--2--x--2--2----x--2--|--4----x--4--4----x--4--|
--0----x--0--0----x--0--|--x--0--x--0--0----x--0--|--2----x--2--2----x--2--|
------------------------|-------------------------|------------------------|


  E  E  E  E  Q    E  E     Q    E  E  Q    E  E     E  E  E  E  Q    E  E   
-------------------------|------------------------|-------------------------|
--x--3--x--3--3----x--3--|--3----x--3--3----x--3--|--x--3--x--3--3----x--3--|
--x--4--x--4--4----x--4--|--4----x--4--4----x--4--|--x--4--x--4--4----x--4--|
--x--4--x--4--4----x--4--|--4----x--4--4----x--4--|--x--4--x--4--4----x--4--|
--x--2--x--2--2----x--2--|--2----x--2--2----x--2--|--x--2--x--2--2----x--2--|
-------------------------|------------------------|-------------------------|


  Q    E  E  Q    E  E     E  E  E  E  Q    E  E     W                 
------------------------|-------------------------|--3----------------|
--2----x--2--2----x--2--|--x--2--x--2--2----x--2--|--3----------------|
--2----x--2--2----x--2--|--x--2--x--2--2----x--2--|--0----------------|
--2----x--2--2----x--2--|--x--2--x--2--2----x--2--|--0----------------|
--0----x--0--0----x--0--|--x--0--x--0--0----x--0--|--2----------------|
------------------------|-------------------------|--3----------------|


  W                   Q    E  E  Q    E  E     E  E  E  E  Q    E  E   
--2----------------|------------------------|-------------------------|
--3----------------|--2----x--2--2----x--2--|--x--2--x--2--2----x--2--|
--2----------------|--2----x--2--2----x--2--|--x--2--x--2--2----x--2--|
--0----------------|--2----x--2--2----x--2--|--x--2--x--2--2----x--2--|
-------------------|--0----x--0--0----x--0--|--x--0--x--0--0----x--0--|
-------------------|------------------------|-------------------------|


  Q    E  E  Q    E  E     E  E  E  E  Q    E  E     Q    E  E  Q    E  E   
------------------------|-------------------------|--2----x--2--2----x--2--|
--3----x--3--3----x--3--|--x--3--x--3--3----x--3--|--3----x--3--3----x--3--|
--0----x--0--0----x--0--|--x--0--x--0--0----x--0--|--2----x--2--2----x--2--|
--0----x--0--0----x--0--|--x--0--x--0--0----x--0--|--0----x--0--0----x--0--|
--2----x--2--2----x--2--|--x--2--x--2--2----x--2--|------------------------|
--3-------3--3-------3--|-----3-----3--3-------3--|------------------------|


  E  E  E  E  Q    E  E     Q    E  E  Q    E  E     E  E  E  E  Q    E  E   
--x--2--x--2--2----x--2--|------------------------|-------------------------|
--x--3--x--3--3----x--3--|--2----x--2--2----x--2--|--x--2--x--2--2----x--2--|
--x--2--x--2--2----x--2--|--2----x--2--2----x--2--|--x--2--x--2--2----x--2--|
--x--0--x--0--0----x--0--|--2----x--2--2----x--2--|--x--2--x--2--2----x--2--|
-------------------------|--0----x--0--0----x--0--|--x--0--x--0--0----x--0--|
-------------------------|------------------------|-------------------------|


  Q    E  E  Q    E  E     E  E  E  E  Q    E  E     Q    E  E  Q    E  E   
------------------------|-------------------------|------------------------|
--2----x--2--2----x--2--|--x--2--x--2--2----x--2--|--2----x--2--2----x--2--|
--2----x--2--2----x--2--|--x--2--x--2--2----x--2--|--2----x--2--2----x--2--|
--2----x--2--2----x--2--|--x--2--x--2--2----x--2--|--2----x--2--2----x--2--|
--0----x--0--0----x--0--|--x--0--x--0--0----x--0--|--0----x--0--0----x--0--|
------------------------|-------------------------|------------------------|


  E  E  E  E  Q    E  E     Q    E  E  Q    E  E     E  E  E  E  Q    E  E   
-------------------------|------------------------|-------------------------|
--x--2--x--2--2----x--2--|--2----x--2--2----x--2--|--x--2--x--2--2----x--2--|
--x--2--x--2--2----x--2--|--2----x--2--2----x--2--|--x--2--x--2--2----x--2--|
--x--2--x--2--2----x--2--|--2----x--2--2----x--2--|--x--2--x--2--2----x--2--|
--x--0--x--0--0----x--0--|--0----x--0--0----x--0--|--x--0--x--0--0----x--0--|
-------------------------|------------------------|-------------------------|


  Q    E  E  Q    E  E     E  E  E  E  Q    E  E     Q    E  E  Q    E  E   
------------------------|-------------------------|------------------------|
--3----x--3--3----x--3--|--x--3--x--3--3----x--3--|--3----x--3--3----x--3--|
--4----x--4--4----x--4--|--x--4--x--4--4----x--4--|--4----x--4--4----x--4--|
--4----x--4--4----x--4--|--x--4--x--4--4----x--4--|--4----x--4--4----x--4--|
--2----x--2--2----x--2--|--x--2--x--2--2----x--2--|--2----x--2--2----x--2--|
------------------------|-------------------------|------------------------|


  E  E  E  E  Q    E  E     Q    E  E  Q    E  E     E  E  E  E  Q    E  E   
-------------------------|------------------------|-------------------------|
--x--3--x--3--3----x--3--|--2----x--2--2----x--2--|--x--2--x--2--2----x--2--|
--x--4--x--4--4----x--4--|--2----x--2--2----x--2--|--x--2--x--2--2----x--2--|
--x--4--x--4--4----x--4--|--2----x--2--2----x--2--|--x--2--x--2--2----x--2--|
--x--2--x--2--2----x--2--|--0----x--0--0----x--0--|--x--0--x--0--0----x--0--|
-------------------------|------------------------|-------------------------|


  Q    E  E  Q    E  E     E  E  E  E  Q    E  E     Q    E  E  Q    E  E   
------------------------|-------------------------|------------------------|
--2----x--2--2----x--2--|--x--2--x--2--2----x--2--|--3----x--3--3----x--3--|
--2----x--2--2----x--2--|--x--2--x--2--2----x--2--|--4----x--4--4----x--4--|
--2----x--2--2----x--2--|--x--2--x--2--2----x--2--|--4----x--4--4----x--4--|
--0----x--0--0----x--0--|--x--0--x--0--0----x--0--|--2----x--2--2----x--2--|
------------------------|-------------------------|------------------------|


  E  E  E  E  Q    E  E     Q    E  E  Q    E  E     E  E  E  E  Q    E  E   
-------------------------|------------------------|-------------------------|
--x--3--x--3--3----x--3--|--3----x--3--3----x--3--|--x--3--x--3--3----x--3--|
--x--4--x--4--4----x--4--|--4----x--4--4----x--4--|--x--4--x--4--4----x--4--|
--x--4--x--4--4----x--4--|--4----x--4--4----x--4--|--x--4--x--4--4----x--4--|
--x--2--x--2--2----x--2--|--2----x--2--2----x--2--|--x--2--x--2--2----x--2--|
-------------------------|------------------------|-------------------------|


  Q    E  E  Q    E  E     E  E  E  E  Q    E  E     Q    E  E  Q    E  E   
------------------------|-------------------------|------------------------|
--2----x--2--2----x--2--|--x--2--x--2--2----x--2--|--2----x--2--2----x--2--|
--2----x--2--2----x--2--|--x--2--x--2--2----x--2--|--2----x--2--2----x--2--|
--2----x--2--2----x--2--|--x--2--x--2--2----x--2--|--2----x--2--2----x--2--|
--0----x--0--0----x--0--|--x--0--x--0--0----x--0--|--0----x--0--0----x--0--|
------------------------|-------------------------|------------------------|


  E  E  E  E  Q    E  E     Q    E  E  Q    E  E     E  E  E  E  Q    E  E   
-------------------------|------------------------|-------------------------|
--x--2--x--2--2----x--2--|--3----x--3--3----x--3--|--x--3--x--3--3----x--3--|
--x--2--x--2--2----x--2--|--4----x--4--4----x--4--|--x--4--x--4--4----x--4--|
--x--2--x--2--2----x--2--|--4----x--4--4----x--4--|--x--4--x--4--4----x--4--|
--x--0--x--0--0----x--0--|--2----x--2--2----x--2--|--x--2--x--2--2----x--2--|
-------------------------|------------------------|-------------------------|


  Q    E  E  Q    E  E     E  E  E  E  Q    E  E     Q    E  E  Q    E  E   
------------------------|-------------------------|------------------------|
--3----x--3--3----x--3--|--x--3--x--3--3----x--3--|--2----x--2--2----x--2--|
--4----x--4--4----x--4--|--x--4--x--4--4----x--4--|--2----x--2--2----x--2--|
--4----x--4--4----x--4--|--x--4--x--4--4----x--4--|--2----x--2--2----x--2--|
--2----x--2--2----x--2--|--x--2--x--2--2----x--2--|--0----x--0--0----x--0--|
------------------------|-------------------------|------------------------|


  E  E  E  E  Q    E  E     W                   W                 
-------------------------|--3----------------|--2----------------|
--x--2--x--2--2----x--2--|--3----------------|--3----------------|
--x--2--x--2--2----x--2--|--0----------------|--2----------------|
--x--2--x--2--2----x--2--|--0----------------|--0----------------|
--x--0--x--0--0----x--0--|--2----------------|-------------------|
-------------------------|--3----------------|-------------------|


  Q    E  E  Q    E  E     E  E  E  E  Q    E  E     Q    E  E  Q    E  E   
------------------------|-------------------------|------------------------|
--2----x--2--2----x--2--|--x--2--x--2--2----x--2--|--3----x--3--3----x--3--|
--2----x--2--2----x--2--|--x--2--x--2--2----x--2--|--0----x--0--0----x--0--|
--2----x--2--2----x--2--|--x--2--x--2--2----x--2--|--0----x--0--0----x--0--|
--0----x--0--0----x--0--|--x--0--x--0--0----x--0--|--2----x--2--2----x--2--|
------------------------|-------------------------|--3-------3--3-------3--|


  E  E  E  E  Q    E  E     Q    E  E  Q    E  E     E  E  E  E  Q    E  E   
-------------------------|--2----x--2--2----x--2--|--x--2--x--2--2----x--2--|
--x--3--x--3--3----x--3--|--3----x--3--3----x--3--|--x--3--x--3--3----x--3--|
--x--0--x--0--0----x--0--|--2----x--2--2----x--2--|--x--2--x--2--2----x--2--|
--x--0--x--0--0----x--0--|--0----x--0--0----x--0--|--x--0--x--0--0----x--0--|
--x--2--x--2--2----x--2--|------------------------|-------------------------|
-----3-----3--3-------3--|------------------------|-------------------------|


  Q    E  E  Q    E  E     E  Q    H        E     Q    E  E  Q    E  E   
------------------------|----------------------|--0----x--x--0----x--x--|
--2----x--2--2----x--2--|--2-------------------|--0----x--x--0----x--x--|
--2----x--2--2----x--2--|--2-------------------|--1----x--x--1----x--x--|
--2----x--2--2----x--2--|--2-------------------|--2----x--x--2----x--x--|
--0----x--0--0----x--0--|--0-------------------|------------------------|
------------------------|----------------------|------------------------|


  E  E  E  E  Q    E  E     Q    E  E  Q    E  E     E  E  E  E  Q    E  E   
--0--x--x--x--0----x--x--|--0----x--x--0----x--x--|--0--x--x--x--0----x--x--|
--0--x--x--x--0----x--x--|--0----x--x--0----x--x--|--0--x--x--x--0----x--x--|
--1--x--x--x--1----x--x--|--1----x--x--1----x--x--|--1--x--x--x--1----x--x--|
--2--x--x--x--2----x--x--|--2----x--x--2----x--x--|--2--x--x--x--2----x--x--|
-------------------------|------------------------|-------------------------|
-------------------------|------------------------|-------------------------|


  Q    E  E  Q    E  E     E  E  E  E  Q    E  E     Q    E  E  Q    E  E   
--2----x--x--2----x--x--|--2--x--x--x--2----x--x--|--2----x--x--2----x--x--|
--3----x--x--3----x--x--|--3--x--x--x--3----x--x--|--3----x--x--3----x--x--|
--2----x--x--2----x--x--|--2--x--x--x--2----x--x--|--2----x--x--2----x--x--|
--0----x--x--0----x--x--|--0--x--x--x--0----x--x--|--0----x--x--0----x--x--|
------------------------|-------------------------|------------------------|
------------------------|-------------------------|------------------------|


  E  E  E  E  Q    E  E     Q    E  E  Q    E  E     E  E  E  E  Q    E  E   
--2--x--x--x--2----x--x--|--0----x--x--0----x--x--|--0--x--x--x--0----x--x--|
--3--x--x--x--3----x--x--|--0----x--x--0----x--x--|--0--x--x--x--0----x--x--|
--2--x--x--x--2----x--x--|--1----x--x--1----x--x--|--1--x--x--x--1----x--x--|
--0--x--x--x--0----x--x--|--2----x--x--2----x--x--|--2--x--x--x--2----x--x--|
-------------------------|------------------------|-------------------------|
-------------------------|------------------------|-------------------------|


  Q    E  E  Q    E  E     E  E  E  E  Q    E  E     Q    E  E  Q    E  E   
--0----x--x--0----x--x--|--0--x--x--x--0----x--x--|--2----x--x--2----x--x--|
--0----x--x--0----x--x--|--0--x--x--x--0----x--x--|--3----x--x--3----x--x--|
--1----x--x--1----x--x--|--1--x--x--x--1----x--x--|--2----x--x--2----x--x--|
--2----x--x--2----x--x--|--2--x--x--x--2----x--x--|--0----x--x--0----x--x--|
------------------------|-------------------------|------------------------|
------------------------|-------------------------|------------------------|


  E  E  E  E  Q    E  E     Q    E  E  Q    E  E     E  E  E  E  Q    E  E   
--2--x--x--x--2----x--x--|--2----x--x--2----x--x--|--2--x--x--x--2----x--x--|
--3--x--x--x--3----x--x--|--3----x--x--3----x--x--|--3--x--x--x--3----x--x--|
--2--x--x--x--2----x--x--|--2----x--x--2----x--x--|--2--x--x--x--2----x--x--|
--0--x--x--x--0----x--x--|--0----x--x--0----x--x--|--0--x--x--x--0----x--x--|
-------------------------|------------------------|-------------------------|
-------------------------|------------------------|-------------------------|


   E   Q     E   Q     E   E     E   E   Q     Q    E  E   
---x--10-----x--10-----x--10--|--L---x---8-----8----x--x--|
---x--12-----x--12-----x--12--|--L---x--10----10----x--x--|
---x--12-----x--12-----x--12--|--L---x--10----10----x--x--|
------------------------------|---------------------------|
------------------------------|---------------------------|
------------------------------|---------------------------|


  E  Q    E  Q    E  E     E  E  Q    Q    E  E     E  Q    E  Q    E  E   
--5--7----x--7----x--7--|--L--5--5----5----x--x--|--3--5----x--5----x--5--|
--7--0----x--0----x--0--|--L--7--7----7----x--x--|--5--7----x--7----x--7--|
--7--9----x--9----x--9--|--L--7--7----7----x--x--|--5--7----x--7----x--7--|
------------------------|------------------------|------------------------|
------------------------|------------------------|------------------------|
------------------------|------------------------|------------------------|


  E  E  Q    Q    E  E     E   Q    E  Q    E  E     E  E  Q    Q    E  E   
--L--3--3----3----x--x--|-------------------------|------------------------|
--L--5--5----5----x--x--|--0h--2----2--2----2--0--|--L--2--3----2----x--x--|
--L--5--5----5----x--x--|--0h--2----2--2----2--0--|--L--2--2----2----x--x--|
------------------------|--0h--2----2--2----2--0--|--L--2--4----2----x--x--|
------------------------|-------------------------|------------------------|
------------------------|-------------------------|------------------------|


  E   Q    E  Q    E  E     E  E  Q    Q    E  E                           
-------------------------|------------------------|-----|-----|-----|-----|
--0h--2----2--2----2--0--|--L--2--3----2----x--x--|-----|-----|-----|-----|
--0h--2----2--2----2--0--|--L--2--2----2----x--x--|-----|-----|-----|-----|
--0h--2----2--2----2--0--|--L--2--4----2----x--x--|-----|-----|-----|-----|
-------------------------|------------------------|-----|-----|-----|-----|
-------------------------|------------------------|-----|-----|-----|-----|


                                                   E   Q     E   Q     E   E   
-----|-----|-----|-----|-----|-----|-----|-----|---x--10-----x--10-----x--10--|
-----|-----|-----|-----|-----|-----|-----|-----|---x--12-----x--12-----x--12--|
-----|-----|-----|-----|-----|-----|-----|-----|---x--12-----x--12-----x--12--|
-----|-----|-----|-----|-----|-----|-----|-----|------------------------------|
-----|-----|-----|-----|-----|-----|-----|-----|------------------------------|
-----|-----|-----|-----|-----|-----|-----|-----|------------------------------|


  E   E   Q     Q    E  E     E  Q    E  Q    E  E     E  E  Q    Q    E  E   
--L---x---8-----8----x--x--|--5--7----x--7----x--7--|--L--5--5----5----x--x--|
--L---x--10----10----x--x--|--7--0----x--0----x--0--|--L--7--7----7----x--x--|
--L---x--10----10----x--x--|--7--9----x--9----x--9--|--L--7--7----7----x--x--|
---------------------------|------------------------|------------------------|
---------------------------|------------------------|------------------------|
---------------------------|------------------------|------------------------|


  E  Q    E  Q    E  E     E  E  Q    Q    E  E     E   Q    E  Q    E  E   
--3--5----x--5----x--5--|--L--3--3----3----x--x--|-------------------------|
--5--7----x--7----x--7--|--L--5--5----5----x--x--|--0h--2----2--2----2--0--|
--5--7----x--7----x--7--|--L--5--5----5----x--x--|--0h--2----2--2----2--0--|
------------------------|------------------------|--0h--2----2--2----2--0--|
------------------------|------------------------|-------------------------|
------------------------|------------------------|-------------------------|


  E  E  Q    Q    E  E     E   Q    E  Q    E  E     E  E  Q    Q    E  E   
------------------------|-------------------------|------------------------|
--L--2--3----2----x--x--|--0h--2----2--2----2--0--|--L--2--3----2----x--x--|
--L--2--2----2----x--x--|--0h--2----2--2----2--0--|--L--2--2----2----x--x--|
--L--2--4----2----x--x--|--0h--2----2--2----2--0--|--L--2--4----2----x--x--|
------------------------|-------------------------|------------------------|
------------------------|-------------------------|------------------------|


  Q    E  E  Q    E  E     E  E  E  E  Q    E  E     Q    E  E  Q    E  E   
------------------------|-------------------------|------------------------|
--2----x--2--2----x--2--|--x--2--x--2--2----x--2--|--2----x--2--2----x--2--|
--2----x--2--2----x--2--|--x--2--x--2--2----x--2--|--2----x--2--2----x--2--|
--2----x--2--2----x--2--|--x--2--x--2--2----x--2--|--2----x--2--2----x--2--|
--0----x--0--0----x--0--|--x--0--x--0--0----x--0--|--0----x--0--0----x--0--|
------------------------|-------------------------|------------------------|


  E  E  E  E  Q    E  E     Q    E  E  Q    Q       W                 
-------------------------|-----------------------|-------------------|
--x--2--x--2--2----x--2--|--3----x--3--3---------|-------------------|
--x--2--x--2--2----x--2--|--4----x--4--4---------|-------------------|
--x--2--x--2--2----x--2--|--4----x--4--4---------|-------------------|
--x--0--x--0--0----x--0--|--2----x--2--2---------|-------------------|
-------------------------|-----------------------|-------------------|


  E  E  E  E  Q    Q       W                   Q    E  E  Q    E  E   
------------------------|-------------------|------------------------|
--3--x--x--3--3---------|-------------------|--2----x--2--2----x--2--|
--4--x--x--4--4---------|-------------------|--2----x--2--2----x--2--|
--4--x--x--4--4---------|-------------------|--2----x--2--2----x--2--|
--2--x--x--2--2---------|-------------------|--0----x--0--0----x--0--|
------------------------|-------------------|------------------------|


  E  E  E  E  Q    E  E     Q    E  E  Q    E  E     E  E  E  E  Q    E  E   
-------------------------|------------------------|-------------------------|
--x--2--x--2--2----x--2--|--2----x--2--2----x--2--|--x--2--x--2--2----x--2--|
--x--2--x--2--2----x--2--|--2----x--2--2----x--2--|--x--2--x--2--2----x--2--|
--x--2--x--2--2----x--2--|--2----x--2--2----x--2--|--x--2--x--2--2----x--2--|
--x--0--x--0--0----x--0--|--0----x--0--0----x--0--|--x--0--x--0--0----x--0--|
-------------------------|------------------------|-------------------------|


  Q    E  E  Q    Q       W                   E  E  E  E  Q    Q     
-----------------------|-------------------|------------------------|
--3----x--3--3---------|-------------------|--3--x--x--3--3---------|
--4----x--4--4---------|-------------------|--4--x--x--4--4---------|
--4----x--4--4---------|-------------------|--4--x--x--4--4---------|
--2----x--2--2---------|-------------------|--2--x--x--2--2---------|
-----------------------|-------------------|------------------------|


  W                   Q    E  E  Q    E  E     E  E  E  E  Q    E  E   
-------------------|------------------------|-------------------------|
-------------------|--2----x--2--2----x--2--|--x--2--x--2--2----x--2--|
-------------------|--2----x--2--2----x--2--|--x--2--x--2--2----x--2--|
-------------------|--2----x--2--2----x--2--|--x--2--x--2--2----x--2--|
-------------------|--0----x--0--0----x--0--|--x--0--x--0--0----x--0--|
-------------------|------------------------|-------------------------|


  Q    E  E  Q    E  E     E  E  E  E  Q    E  E     Q    E  E  Q    Q     
------------------------|-------------------------|-----------------------|
--2----x--2--2----x--2--|--x--2--x--2--2----x--2--|--3----x--3--3---------|
--2----x--2--2----x--2--|--x--2--x--2--2----x--2--|--4----x--4--4---------|
--2----x--2--2----x--2--|--x--2--x--2--2----x--2--|--4----x--4--4---------|
--0----x--0--0----x--0--|--x--0--x--0--0----x--0--|--2----x--2--2---------|
------------------------|-------------------------|-----------------------|


  W                   E  E  E  E  Q    Q       W                 
-------------------|------------------------|-------------------|
-------------------|--3--x--x--3--3---------|-------------------|
-------------------|--4--x--x--4--4---------|-------------------|
-------------------|--4--x--x--4--4---------|-------------------|
-------------------|--2--x--x--2--2---------|-------------------|
-------------------|------------------------|-------------------|


  Q    E  E  Q    E  E     E  E  E  E  Q    E  E     W                 
------------------------|-------------------------|--3----------------|
--2----x--2--2----x--2--|--x--2--x--2--2----x--2--|--3----------------|
--2----x--2--2----x--2--|--x--2--x--2--2----x--2--|--0----------------|
--2----x--2--2----x--2--|--x--2--x--2--2----x--2--|--0----------------|
--0----x--0--0----x--0--|--x--0--x--0--0----x--0--|--2----------------|
------------------------|-------------------------|--3----------------|


  W                   Q    E  E  Q    E  E     E  E  E  E  Q    E  E   
--2----------------|------------------------|-------------------------|
--3----------------|--2----x--2--2----x--2--|--x--2--x--2--2----x--2--|
--2----------------|--2----x--2--2----x--2--|--x--2--x--2--2----x--2--|
--0----------------|--2----x--2--2----x--2--|--x--2--x--2--2----x--2--|
-------------------|--0----x--0--0----x--0--|--x--0--x--0--0----x--0--|
-------------------|------------------------|-------------------------|


  Q    E  E  Q    E  E     E  E  E  E  Q    E  E     Q    E  E  Q    E  E   
------------------------|-------------------------|--2----x--2--2----x--2--|
--3----x--3--3----x--3--|--x--3--x--3--3----x--3--|--3----x--3--3----x--3--|
--0----x--0--0----x--0--|--x--0--x--0--0----x--0--|--2----x--2--2----x--2--|
--0----x--0--0----x--0--|--x--0--x--0--0----x--0--|--0----x--0--0----x--0--|
--2----x--2--2----x--2--|--x--2--x--2--2----x--2--|------------------------|
--3-------3--3-------3--|-----3-----3--3-------3--|------------------------|


  E  E  E  E  Q    E  E     W                                      
--x--2--x--2--2----x--2--|-------------------|-------------------||
--x--3--x--3--3----x--3--|--2----------------|-------------------||
--x--2--x--2--2----x--2--|--2----------------|-------------------||
--x--0--x--0--0----x--0--|--2----------------|-------------------||
-------------------------|--0----------------|-------------------||
-------------------------|-------------------|-------------------||










Guitar 3


     W                   E  E  E  E  E  E  E  E     E  Q    Q    E  E  E   
E||-------------------|--------------------------|------------------------|
B||-------------------|--------3--------3--------|--3--5----3----5--------|
G||-------------------|-----3--------3--------3--|---------------------2--|
D||-------------------|--7--------7--------7-----|------------------6-----|
A||-------------------|--------------------------|------------------------|
E||-------------------|--------------------------|------------------------|


  E  E  E  E  E  E  E  E     E  E  E  E  E  E  E  E   
--------------------------|--------------------------|
--2--------2--------2-----|-----2--------2--------2--|
--------2--------2--------|--2--------2--------2-----|
-----6--------6--------6--|--------6--------6--------|
--------------------------|--------------------------|
--------------------------|--------------------------|


  E  E  E  E  E  E  E  E     E  E  E  E  E  E  E  E   
--------------------------|--------------------------|
--------2--------2--------|--2--------2--------3-----|
-----2--------2--------2--|--------2--------3--------|
--6--------6--------6-----|-----6--------7--------7--|
--------------------------|--------------------------|
--------------------------|--------------------------|


  E  E  E  E  E  E  E  E     E  E  E  E  E  E  E  E   
--------------------------|--------------------------|
-----3--------3--------3--|--------3--------2--------|
--3--------3--------3-----|-----3--------2--------2--|
--------7--------7--------|--7--------6--------6-----|
--------------------------|--------------------------|
--------------------------|--------------------------|


  E  E  E  E  E  E  E  E     E  E  E  E  E  E  E  E   
--------------------------|--------------------------|
--2--------2--------2-----|-----2--------2--------2--|
--------2--------2--------|--2--------2--------2-----|
-----6--------6--------2--|--------2--------2--------|
--------------------------|--------------------------|
--------------------------|--------------------------|


  E  E  E  E  E  E  E  E     E  E  E  E  E  E  E  E   
--------------------------|--------------------------|
--------2--------2--------|--2--------2--------2-----|
-----2--------2--------2--|--------2--------2--------|
--2--------2--------2-----|-----2--------2--------2--|
--------------------------|--------------------------|
--------------------------|--------------------------|


  E  E  E  E  E  E  E  E     E  E  E  E  E  E  E  E     Q    E  E  E  E  E  E   
--------------------------|-----0--------0--------0--|-------------0--------0--|
-----2--------2--------2--|--------2--------2--------|-------2--------2--------|
--2--------2--------2-----|--2--------2--------2-----|--2-------2--------2-----|
--------2--------2--------|--------------------------|-------------------------|
--------------------------|--------------------------|-------------------------|
--------------------------|--------------------------|-------------------------|


  Q    E  E  E  E  E  E     E  E  E  E  E  E  E  E     E  E  E  E  E  E  E  E   
-------------0--------0--|-----0--------0--------0--|-----2--------2--------2--|
-------2--------2--------|--------2--------2--------|--------3--------3--------|
--2-------2--------2-----|--2--------2--------2-----|--4--------4--------4-----|
-------------------------|--------------------------|--------------------------|
-------------------------|--------------------------|--------------------------|
-------------------------|--------------------------|--------------------------|


  Q    E  E  E  E  E  E     Q    E  E  E  E  E  E     E  E  E  E  E  E  E  E   
-------------2--------2--|-------------2--------2--|-----2--------2--------2--|
-------3--------3--------|-------3--------3--------|--------3--------3--------|
--4-------4--------4-----|--4-------4--------4-----|--4--------4--------4-----|
-------------------------|-------------------------|--------------------------|
-------------------------|-------------------------|--------------------------|
-------------------------|-------------------------|--------------------------|


  E  E  E  E  E  E  E  E     Q    E  E  E  E  E  E     Q    E  E  E  E  E  E   
-----0--------0--------0--|-------------0--------0--|-------------0--------0--|
--------2--------2--------|-------2--------2--------|-------2--------2--------|
--2--------2--------2-----|--2-------2--------2-----|--2-------2--------2-----|
--------------------------|-------------------------|-------------------------|
--------------------------|-------------------------|-------------------------|
--------------------------|-------------------------|-------------------------|


  E  E  E  E  E  E  E  E     E  E  E  E  E  E  E  E     Q    E  E  E  E  E  E   
-----0--------0--------0--|-----2--------2--------2--|-------------2--------2--|
--------2--------2--------|--------3--------3--------|-------3--------3--------|
--2--------2--------2-----|--4--------4--------4-----|--4-------4--------4-----|
--------------------------|--------------------------|-------------------------|
--------------------------|--------------------------|-------------------------|
--------------------------|--------------------------|-------------------------|


  Q    E  E  E  E  E  E     E  E  E  E  E  E  E  E     E  E  E  E  E  E  E  E   
-------------2--------2--|-----2--------2--------2--|-----0--------0--------0--|
-------3--------3--------|--------3--------3--------|--------2--------2--------|
--4-------4--------4-----|--4--------4--------4-----|--2--------2--------2-----|
-------------------------|--------------------------|--------------------------|
-------------------------|--------------------------|--------------------------|
-------------------------|--------------------------|--------------------------|


  Q    E  E  E  E  E  E     Q    E  E  E  E  E  E     E  E  E  E  E  E  E  E   
-------------0--------0--|-------------0--------0--|-----0--------0--------0--|
-------2--------2--------|-------2--------2--------|--------2--------2--------|
--2-------2--------2-----|--2-------2--------2-----|--2--------2--------2-----|
-------------------------|-------------------------|--------------------------|
-------------------------|-------------------------|--------------------------|
-------------------------|-------------------------|--------------------------|


  E  E  E  E  E  E  E  E     Q    E  E  E  E  E  E     Q    E  E  E  E  E  E   
-----2--------2--------2--|-------------2--------2--|-------------2--------2--|
--------3--------3--------|-------3--------3--------|-------3--------3--------|
--4--------4--------4-----|--4-------4--------4-----|--4-------4--------4-----|
--------------------------|-------------------------|-------------------------|
--------------------------|-------------------------|-------------------------|
--------------------------|-------------------------|-------------------------|


                                                 ^                 
  E  E  E  E  E  E  E  E     W                   W                 
-----2--------2--------2--|-------------------|--5----------------|
--------3--------3--------|--2----------------|--5----------------|
--4--------4--------4-----|--2----------------|--6----------------|
--------------------------|-------------------|-------------------|
--------------------------|-------------------|-------------------|
--------------------------|-------------------|-------------------|


            ^                    ^                                    
  H         H           H        H           E  E  E  E  E  E  E  E   
---------------------|--------------------|-----0--------0--------0--|
-----------12--------|-----------7--------|--------2--------2--------|
-----------12--------|-----------7--------|--2--------2--------2-----|
-----------12--------|-----------7--------|--------------------------|
---------------------|--------------------|--------------------------|
---------------------|--------------------|--------------------------|


  Q    E  E  E  E  E  E     E  E  E  E  E  E  E  E     Q    E  E  E  E  E  E   
-------------0--------0--|-----3--------3--------3--|-------------3--------3--|
-------2--------2--------|--------3--------3--------|-------3--------3--------|
--2-------2--------2-----|--0--------0--------0-----|--0-------0--------0-----|
-------------------------|--------------------------|-------------------------|
-------------------------|--------------------------|-------------------------|
-------------------------|--------------------------|-------------------------|


  E  E  E  E  E  E  E  E     Q    E  E  E  E  E  E     E   Q    E  Q.     E   
-----2--------2--------2--|-------------2--------2--|------------------------|
--------3--------3--------|-------3--------3--------|------------------------|
--2--------2--------2-----|--2-------2--------2-----|--4S--6----6--6---------|
--------------------------|-------------------------|--5S--7----7--7---------|
--------------------------|-------------------------|------------------------|
--------------------------|-------------------------|------------------------|


  Q.     Q.     Q       E   Q    E  Q.     E     Q.     Q.     Q     
---------------------|------------------------|---------------------|
---------------------|------------------------|---------------------|
--6------4------4----|--4S--6----6--6---------|--6------4------4----|
--7------5------5----|--5S--7----7--7---------|--7------5------5----|
---------------------|------------------------|---------------------|
---------------------|------------------------|---------------------|


  E   Q    E  Q.     E     Q.     Q.     Q       E   Q    E  Q.     E   
------------------------|---------------------|------------------------|
------------------------|---------------------|------------------------|
--4S--6----6--6---------|--6------4------4----|--4S--6----6--6---------|
--5S--7----7--7---------|--7------5------5----|--5S--7----7--7---------|
------------------------|---------------------|------------------------|
------------------------|---------------------|------------------------|


  Q.     Q.     Q       E  E  E  E  E  E  E  E     Q    E  E  E  E  E  E   
---------------------|-----2--------2--------2--|-------------2--------2--|
---------------------|--------3--------3--------|-------3--------3--------|
--6------4------4----|--4--------4--------4-----|--4-------4--------4-----|
--7------5------5----|--------------------------|-------------------------|
---------------------|--------------------------|-------------------------|
---------------------|--------------------------|-------------------------|


  Q    E  E  E  E  E  E     E  E  E  E  E  E  E  E     E   Q    E  Q.     E   
-------------2--------2--|-----2--------2--------2--|------------------------|
-------3--------3--------|--------3--------3--------|------------------------|
--4-------4--------4-----|--4--------4--------4-----|--4S--6----6--6---------|
-------------------------|--------------------------|--5S--7----7--7---------|
-------------------------|--------------------------|------------------------|
-------------------------|--------------------------|------------------------|


  Q.     Q.     Q       E   Q    E  Q.     E     Q.     Q.     Q     
---------------------|------------------------|---------------------|
---------------------|------------------------|---------------------|
--6------4------4----|--4S--6----6--6---------|--6------4------4----|
--7------5------5----|--5S--7----7--7---------|--7------5------5----|
---------------------|------------------------|---------------------|
---------------------|------------------------|---------------------|


  E  E  E  E  E  E  E  E     Q    E  E  E  E  E  E     Q    E  E  E  E  E  E   
-----2--------2--------2--|-------------2--------2--|-------------2--------2--|
--------3--------3--------|-------3--------3--------|-------3--------3--------|
--4--------4--------4-----|--4-------4--------4-----|--4-------4--------4-----|
--------------------------|-------------------------|-------------------------|
--------------------------|-------------------------|-------------------------|
--------------------------|-------------------------|-------------------------|


  E  E  E  E  E  E  E  E     E   Q    E  Q.     E     Q.     Q.     Q     
-----2--------2--------2--|------------------------|---------------------|
--------3--------3--------|------------------------|---------------------|
--4--------4--------4-----|--4S--6----6--6---------|--6------4------4----|
--------------------------|--5S--7----7--7---------|--7------5------5----|
--------------------------|------------------------|---------------------|
--------------------------|------------------------|---------------------|


  E   Q    E  Q.     E     Q.     Q.     Q       E  E  E  E  E  E  E  E   
------------------------|---------------------|-----2--------2--------2--|
------------------------|---------------------|--------3--------3--------|
--4S--6----6--6---------|--6------4------4----|--4--------4--------4-----|
--5S--7----7--7---------|--7------5------5----|--------------------------|
------------------------|---------------------|--------------------------|
------------------------|---------------------|--------------------------|


  Q    E  E  E  E  E  E     Q    E  E  E  E  E  E     E  E  E  E  E  E  E  E   
-------------2--------2--|-------------2--------2--|-----2--------2--------2--|
-------3--------3--------|-------3--------3--------|--------3--------3--------|
--4-------4--------4-----|--4-------4--------4-----|--4--------4--------4-----|
-------------------------|-------------------------|--------------------------|
-------------------------|-------------------------|--------------------------|
-------------------------|-------------------------|--------------------------|


                      ^                             ^         
  W                   W                   H         H         
-------------------|--5----------------|---------------------|
--2----------------|--5----------------|-----------12--------|
--2----------------|--6----------------|-----------12--------|
-------------------|-------------------|-----------12--------|
-------------------|-------------------|---------------------|
-------------------|-------------------|---------------------|


           ^                                                              
  H        H           E  E  E  E  E  E  E  E     Q    E  E  E  E  E  E   
--------------------|-----0--------0--------0--|-------------0--------0--|
-----------7--------|--------2--------2--------|-------2--------2--------|
-----------7--------|--2--------2--------2-----|--2-------2--------2-----|
-----------7--------|--------------------------|-------------------------|
--------------------|--------------------------|-------------------------|
--------------------|--------------------------|-------------------------|


  E  E  E  E  E  E  E  E     Q    E  E  E  E  E  E     E  E  E  E  E  E  E  E   
-----3--------3--------3--|-------------3--------3--|-----2--------2--------2--|
--------3--------3--------|-------3--------3--------|--------3--------3--------|
--0--------0--------0-----|--0-------0--------0-----|--2--------2--------2-----|
--------------------------|-------------------------|--------------------------|
--------------------------|-------------------------|--------------------------|
--------------------------|-------------------------|--------------------------|


  Q    E  E  E  E  E  E     E  E  E  E  E  E  E  E     Q    E  E  E  E  E  E   
-------------2--------2--|-----0--------0--------0--|-------------------------|
-------3--------3--------|--------2--------2--------|-------------------------|
--2-------2--------2-----|--2--------2--------2-----|-------------------------|
-------------------------|--------------------------|-------------------------|
-------------------------|--------------------------|-------------------------|
-------------------------|--------------------------|-------------------------|


  H        Q    Q       E  E  E  E  E  E  E  E     Q    Q    Q    Q     
---------------------|--------------------------|----------------------|
-----------0---------|--0--0--x--x--0--0--x--0--|--0---------0---------|
-----------9---------|--9--9--x--x--9--9--x--9--|--9---------9---------|
-----------9---------|--9--9--x--x--9--9--x--9--|--9---------9---------|
---------------------|--------------------------|----------------------|
---------------------|--------------------------|----------------------|


  E  E  E  E  E  E  E  E     Q    Q    Q    Q       E   Q.     E   Q.      
--------------------------|----------------------|------------------------|
--0--0--x--x--0--0--x--0--|--7---------7---------|--7--10------7--10------|
--9--9--x--x--9--9--x--0--|--7---------7---------|--7---7------7---7------|
--9--9--x--x--9--9--x--9--|--7---------7---------|--7---7------7---7------|
--------------------------|----------------------|------------------------|
--------------------------|----------------------|------------------------|


  Q    Q    Q    Q       E   Q.     E   E  Q       Q    Q    Q    Q     
----------------------|-------------------------|----------------------|
--7---------7---------|--7--10------7--10--7----|--0---------0---------|
--7---------7---------|--7---7------7---7--7----|--9---------9---------|
--7---------7---------|--7---7------7---7--7----|--9---------9---------|
----------------------|-------------------------|----------------------|
----------------------|-------------------------|----------------------|


  E  E  E  E  E  E  E  E     Q    Q    Q    Q       E  E  E  E  E  E  E  E   
--------------------------|----------------------|--------------------------|
--0--0--x--x--0--0--x--0--|--0---------0---------|--0--0--x--x--0--0--x--0--|
--9--9--x--x--9--9--x--9--|--9---------9---------|--9--9--x--x--9--9--x--0--|
--9--9--x--x--9--9--x--9--|--9---------9---------|--9--9--x--x--9--9--x--9--|
--------------------------|----------------------|--------------------------|
--------------------------|----------------------|--------------------------|


  Q    Q    Q    Q       E   Q.     E   Q.        Q    Q    Q    Q     
----------------------|------------------------|----------------------|
--7---------7---------|--7--10------7--10------|--7---------7---------|
--7---------7---------|--7---7------7---7------|--7---------7---------|
--7---------7---------|--7---7------7---7------|--7---------7---------|
----------------------|------------------------|----------------------|
----------------------|------------------------|----------------------|


  E   Q.     E   E  Q       W                   H.             Q     
-------------------------|-------------------|---------------<>7----|
--7--10------7--10--7----|-------------------|----------------------|
--7---7------7---7--7----|-------------------|----------------------|
--7---7------7---7--7----|-------------------|----------------------|
-------------------------|-------------------|----------------------|
-------------------------|-------------------|----------------------|


    W                   H.             Q         W                 
--<>7----------------|---------------<>7----|--<>7----------------|
---------------------|----------------------|---------------------|
---------------------|----------------------|---------------------|
---------------------|----------------------|---------------------|
---------------------|----------------------|---------------------|
---------------------|----------------------|---------------------|


  H.             Q         W                   H.             Q     
---------------<>7----|--<>7----------------|---------------<>7----|
----------------------|---------------------|----------------------|
----------------------|---------------------|----------------------|
----------------------|---------------------|----------------------|
----------------------|---------------------|----------------------|
----------------------|---------------------|----------------------|


    W                   W                   Q    E  E  E  E  E  E   
--<>7----------------|-------------------|-------------------------|
---------------------|-------------------|-------3--------3--------|
---------------------|-------------------|----------2--------2-----|
---------------------|-------------------|--0----------0--------0--|
---------------------|-------------------|-------------------------|
---------------------|-------------------|-------------------------|


  E  E  E  E  E  E  E  E     Q    E  E  E  E  E  E     E  E  E  E  E  E  E  E   
--------------------------|-------------------------|--------------------------|
--3--------3--------3-----|-------1--------1--------|--1--------1--------1-----|
--------2--------4-----2--|----------0-----------0--|--------0--------0-----0--|
-----0--------0-----------|--2----------2-----2-----|-----2--------2-----------|
--------------------------|-------------------------|--------------------------|
--------------------------|-------------------------|--------------------------|


  Q    E  E  E  E  E  E     E  E  E  E  E  E  E  E     Q    E  E  E  E  E  E   
-------------------------|--------------------------|-------------------------|
-------3--------3--------|--3--------3--------3-----|-------1--------1--------|
----------2--------2-----|--------2--------4-----2--|----------0-----------0--|
--0----------0--------0--|-----0--------0-----------|--2----------2-----2-----|
-------------------------|--------------------------|-------------------------|
-------------------------|--------------------------|-------------------------|


  E  E  E  E  E  E  E  E     Q    E  E  E  E  E  E     E  E  E  E  E  E  E  E   
--------------------------|-------------------------|--------------------------|
--1--------1--------1-----|-------3--------3--------|--3--------3--------3-----|
--------0--------0-----0--|----------3--------3-----|-----3--------3--------3--|
-----2--------2-----------|--3----------3--------3--|--------3--------3--------|
--------------------------|-------------------------|--------------------------|
--------------------------|-------------------------|--------------------------|


  Q    E  E  E  E  E  E     E  E  E  E  E  E  E  E     W                 
-------------------------|--------------------------|-------------------|
-------2--------2--------|--2--------2--------2-----|-------------------|
----------2--------2-----|-----2--------2--------2--|-------------------|
--2----------2--------2--|--------2--------2--------|-------------------|
-------------------------|--------------------------|-------------------|
-------------------------|--------------------------|-------------------|


  H.             Q         W                   H.             Q     
---------------<>7----|--<>7----------------|---------------<>7----|
----------------------|---------------------|----------------------|
----------------------|---------------------|----------------------|
----------------------|---------------------|----------------------|
----------------------|---------------------|----------------------|
----------------------|---------------------|----------------------|


    W                   H.             Q         W                 
--<>7----------------|---------------<>7----|--<>7----------------|
---------------------|----------------------|---------------------|
---------------------|----------------------|---------------------|
---------------------|----------------------|---------------------|
---------------------|----------------------|---------------------|
---------------------|----------------------|---------------------|


  H.             Q         W                   W                 
---------------<>7----|--<>7----------------|-------------------|
----------------------|---------------------|-------------------|
----------------------|---------------------|-------------------|
----------------------|---------------------|-------------------|
----------------------|---------------------|-------------------|
----------------------|---------------------|-------------------|


  E   Q    E  Q.     E     Q.     Q.     Q       E   Q    E  Q.     E   
------------------------|---------------------|------------------------|
--0h--2----2--2---------|--2------0------0----|--0h--2----2--2---------|
--0h--2----2--2---------|--2------0------0----|--0h--2----2--2---------|
------------------------|---------------------|------------------------|
------------------------|---------------------|------------------------|
------------------------|---------------------|------------------------|


  Q.     Q.     Q       E   E  E  E  H           E  E  E  Q    Q    E   
---------------------|------------2-----------|-----------2---------2--|
--2------0------0----|--2h--3--3--3--3--------|-----3----------3-------|
--2------0------0----|--2h--4--4--4--4--------|--4-----4---------------|
---------------------|--2h--4--4--4--4--------|------------------------|
---------------------|---------------2--------|------------------------|
---------------------|------------------------|------------------------|


  E  E  E  E  H           W                   E   Q    E  Q.     E   
--------------2--------|-------------------|------------------------|
--3-----3--------------|-------------------|--0h--2----2--2---------|
-----4-----4-----------|-------------------|--0h--2----2--2---------|
-----------------------|-------------------|------------------------|
-----------------------|-------------------|------------------------|
-----------------------|-------------------|------------------------|


  Q.     Q.     Q       E   Q    E  Q.     E     Q.     Q.     Q     
---------------------|------------------------|---------------------|
--2------0------0----|--0h--2----2--2---------|--2------0------0----|
--2------0------0----|--0h--2----2--2---------|--2------0------0----|
---------------------|------------------------|---------------------|
---------------------|------------------------|---------------------|
---------------------|------------------------|---------------------|


  E   E  E  E  H           E  E  E  Q    Q    E     E  E  E  E  H         
------------2-----------|-----------2---------2--|--------------2--------|
--2h--3--3--3--3--------|-----3----------3-------|--3-----3--------------|
--2h--4--4--4--4--------|--4-----4---------------|-----4-----4-----------|
--2h--4--4--4--4--------|------------------------|-----------------------|
---------------2--------|------------------------|-----------------------|
------------------------|------------------------|-----------------------|


  W                   E   Q    E  Q.     E     Q.     Q.     Q     
-------------------|------------------------|---------------------|
-------------------|--0h--2----2--2---------|--2------0------0----|
-------------------|--0h--2----2--2---------|--2------0------0----|
-------------------|------------------------|---------------------|
-------------------|------------------------|---------------------|
-------------------|------------------------|---------------------|


  E   Q    E  Q.     E     Q.     Q.     Q       E   E  E  E  H         
------------------------|---------------------|------------2-----------|
--0h--2----2--2---------|--2------0------0----|--2h--3--3--3--3--------|
--0h--2----2--2---------|--2------0------0----|--2h--4--4--4--4--------|
------------------------|---------------------|--2h--4--4--4--4--------|
------------------------|---------------------|---------------2--------|
------------------------|---------------------|------------------------|


  E  E  E  Q    Q    E     E  E  E  E  H           W                 
-----------2---------2--|--------------2--------|-------------------|
-----3----------3-------|--3-----3--------------|-------------------|
--4-----4---------------|-----4-----4-----------|-------------------|
------------------------|-----------------------|-------------------|
------------------------|-----------------------|-------------------|
------------------------|-----------------------|-------------------|


  E   Q    E  Q.     E     Q.     Q.     Q       E   Q    E  Q.     E   
------------------------|---------------------|-----------3--3---------|
--0h--2----2--2---------|--2------0------0----|--0h--3----3--3---------|
--0h--2----2--2---------|--2------0------0----|--0h--0----0--0---------|
------------------------|---------------------|------------------------|
------------------------|---------------------|------------------------|
------------------------|---------------------|------------------------|


  E   Q    E  Q.     E     E  E  E  E  E  E  E  E     Q    E  E  E  E  E  E   
-----------2--2---------|-----0--------0--------0--|-------------0--------0--|
--0h--3----3--3---------|--------2--------2--------|-------2--------2--------|
--0h--2----2--2---------|--2--------2--------2-----|--2-------2--------2-----|
------------------------|--------------------------|-------------------------|
------------------------|--------------------------|-------------------------|
------------------------|--------------------------|-------------------------|


  E  E  E  E  E  E  E  E     Q    E  E  E  E  E  E     E  E  E  E  E  E  E  E   
-----3--------3--------3--|-------------3--------3--|-----2--------2--------2--|
--------3--------3--------|-------3--------3--------|--------3--------3--------|
--0--------0--------0-----|--0-------0--------0-----|--2--------2--------2-----|
--------------------------|-------------------------|--------------------------|
--------------------------|-------------------------|--------------------------|
--------------------------|-------------------------|--------------------------|


  Q    E  E  E  E  E  E     W                   W                  
-------------2--------2--|-------------------|-------------------||
-------3--------3--------|-------------------|-------------------||
--2-------2--------2-----|--2----------------|-------------------||
-------------------------|-------------------|-------------------||
-------------------------|-------------------|-------------------||
-------------------------|-------------------|-------------------||




Duration Legend
---------------
W - whole
H - half
Q - quarter
E - 8th
S - 16th
T - 32nd
X - 64th
. - note dotted
|-n-|  - n-tuplets


Tablature Legend
----------------
L - tied note
x - dead note
g - grace note
(n) - ghost note
> - accentuded note
NH - natural harmonic
AH - artificial harmonic
TH - tapped harmonic
SH - semi harmonic
PH - pitch harmonic
h - hammer on
p - pull off
b - bend
br - bendRelease
pb - preBend
pbr - preBendRelease
brb - bendReleaseBend
\n/ - tremolo bar dip
\n - tremolo bar dive
-/n - tremolo bar Release up
/n\ - tremolo bar inverted dip
/n - tremolo bar return
-\n - tremolo bar Release down
S - shift slide
s - legato slide
/ -  slide into from below or out of upwards
\ -  slide into from above or out of downwards
~ - vibrato
W - wide vibrato
tr - trill
TP - tremolo picking
T - tapping
S - slap
P - pop
< - fade in
^ - brush up
v - brush down



http://en.wikipedia.org/wiki/Black_Oak_Arkansas

http://profile.myspace.com/index.cfm?fuseaction=user.viewprofile&friendid=5767976
Tap to rate this tab
# A B C D E F G H I J K L M N O P Q R S T U V W X Y Z