Song name
# A B C D E F G H I J K L M N O P Q R S T U V W X Y Z

Black Oak Arkansas - Happy Hooker tab

Submitted By Jacob Middleton
nightrain_302@hotmail.com

Happy Hooker
Black Oak Arkansas 

Symbols:
/ - Slide Up
\ - Slide Down
~ - Vibrato
^ - Bend
* - Pull Note Down
h - Hammer On
p - Pull Off
: - Repeat

Intro/Verse

|--------------------------------------------|
|--------------------------------------------|
|--------------------------------------------|
|--------------------------------------------|
|---2-2--4-4--2-2--4-4--2-2--4-2-5-2-4-4--:--|
|---0-0--0-0--0-0--0-0--0-0--0-0-0-0-0-0--:--|

Chorus

|------------------------------|
|------------------------------|
|------------------------------|
|---2-2--4-4--5-5--4--2--0--:--|
|---0-0--0-0--0-0--0--0--0--:--|
|------------------------------|

|------------------------------|
|------------------------------|
|---2-2--4-4--5-5--4--2--0--:--|
|---0-0--0-0--0-0--0--0--0--:--|
|------------------------------|
|------------------------------|

Listen To The Record For The Correct Tempo.
There Are No Solos Included In This Tablature.
I Learned This By Ear,So There May Be Mistakes.
E-Mail Me With Any Questions,Comments,etc.

Thanks A Million!

"Nightrain"
Jacob Middleton
Tap to rate this tab
# A B C D E F G H I J K L M N O P Q R S T U V W X Y Z