Song name
# A B C D E F G H I J K L M N O P Q R S T U V W X Y Z

Black Oak Arkansas - Hot Rod tab

Submitted By Jacob Middleton
nightrain_302@hotmail.com

Hot Rod
Black Oak Arkansas 

Symbols:
/ - Slide Up
\ - Slide Down
~ - Vibrato
^ - Bend
* - Pull Note Down
h - Hammer On
p - Pull Off
: - Repeat

Intro/Verse

|--------------------------------------------|
|--------------------------------------------|
|-------------------------------------7^--:--|
|-----7-5*------7-5*------7-5*------7-7^--:--|
|---7-----7-5-7-----7-5-7-----7-5-7-------:--|
|--------------------------------------------|

Chorus

|-------------------|
|-------------------|
|-------------------|
|---9--7--5-5-5-5---|
|---9--7--5-5-5-5---|
|---7--5--3-0-3-3---|

Listen To The Record For The Correct Tempo.
There Are No Solos Included In This Tablature.
I Learned This By Ear,So There May Be Mistakes.
E-Mail Me With Any Questions,Comments,etc.

Thanks A Million!

"Nightrain"
Jacob Middleton
Tap to rate this tab
 
# A B C D E F G H I J K L M N O P Q R S T U V W X Y Z