Song name
# A B C D E F G H I J K L M N O P Q R S T U V W X Y Z

Black Oak Arkansas - Backdoor Man tab

Intro/Verse

e---------------------------------------------------------------------|
b---------------------------------------------------------------------|
g------------9---7---6----------2-------------------------------------|
d---------------------------------4--2----//-ph4--2-------------------|
a------7-/7----0---0-----0h3h4----------------------------------------|
E---0-----------------------------------------------------------------|

Chorus

e--------------------------------------------------------------|
b--------------------------------------------------------------|
g---9------7---/-/-/-----2--2---------------2------------------|
d---9------7---/-/-/-----2--2------------------4--2----//-4--2-|
a---7------5---/-/-/-----0--0----0-0-0h3h4---------------------|
E--------------------------------------------------------------|

Figured this out by listening to Ain't Life Grand on vinyl.
Killer album, killer band.
Too lazy to figure out the solos.
Saw nobody else had tabbed it so here you go.
Myspace.com/furnacerd for questions.
Tap to rate this tab
 
# A B C D E F G H I J K L M N O P Q R S T U V W X Y Z