Song name
# A B C D E F G H I J K L M N O P Q R S T U V W X Y Z

Black Rebel Motorcycle Club - Berlin tab

Black Rebel Motorcycle Club-Berlin
Tabbed by Nick


Verse 1-Guitar 1
E---------------------------------------------------------------|
B---------------------------------------------------------------|
G---------------------------------------------------------------|
D---3-/-5-5-5-x-3-/-5-5-5---------------------------------------|
A---3-/-5-5-5-x-3-/-5-5-5---------------------------------------|
E---1-/-3-3-3-x-1-/-3-3-3---------------------------------------|


Verse 1-Guitar 2 Riff
E----------------------------------------------------------------------------|
B----------------------------------------------------------------------------|
G----------------------------------------------------------------------------|
D---5-5-6/5-5/3--------------------------------------------------------------|
A---5-5-6/5-5/3--------------------------------------------------------------|
E---3-3-4/3-3/1--------------------------------------------------------------|


Interlude in Verse 1- Guitar 2
E----------------------------------------------------------------------------|
B----------------------------------------------------------------------------|
G-------------5^bend---------------------------------------------------------|
D---5-5-5-6/-----------------------------------------------------------------|
A---5-5-5-6/-----------------------------------------------------------------|
E---3-3-3-4/-----------------------------------------------------------------|

Verse 1 the "Im fighting just to breathe, as i get back on my knees" part- Both Guitars
E------------------------------------------------|
B------------------------------------------------|
G---8-8------------------------------------------|
D---8-8--10-10--8-8-8-8--10-10-10-10-----3/5-5-5-|   Two times
A---6-6--10-10--8-8-8-8--10-10-10-10-----3/5-5-5-|
E--------8--8---6-6-6-6--8--8--8--8------1/3-3-3-|

Repeat Verse Riffs


Guitar 2
E-------------------------------------------------|
B-------------------------------------------------|
G---0-3-3-3-3--5/12-12-12-12/3-3-3-3--5--0-0-0-0--|
D-------------------------------------------------|
A-------------------------------------------------|
E-------------------------------------------------|

Chorus-Both Guitars
E-----------------------------|
B-----------------------------|
G-----------------------------|
D---3-3-5-5--8-8-8-10-10-10---|
A---3-3-5-5--8-8-8-10-10-10---|
E---1-1-3-3--6-6-6-8--8--8----|

Guitar two end of chorus
E---14-14-14-14-14-14-14-14-14/---|
B---------------------------------|
G---------------------------------|
D---------------------------------|
A---------------------------------|
E---------------------------------|


Same Verse 1 riffs except guitar plays somthing different behind guitar 1

Guitar 2-Verse 2

E---------------------|
B---------------------|
G---------------12-13-|
D---5-6/5-5/3---------|
A---5-6/5-5/3---------|
E---3-4/3-3/1---------|


Interlude-
E-------------------------|
B-------------------------|
G---13p12p0p12p0p12p0-----|
D-------------------------|
A-------------------------|
E-------------------------|

Solo-
E------1------------------------------|
B-------------------------------------|
G---3^-----0-3--5-5-3---5^-5^-5^-5--3-|
D-------------------------------------|
A-------------------------------------|
E-------------------------------------|


E------1--------3-3---------------------|
B---------------------------------------|
G---3^-----0-5--------0---5^-5^-5^-5--3-| repeat this part twice
D---------------------------------------|
A---------------------------------------|
E---------------------------------------|

E-----------------------13^--------13^-13-10------------|
B------------15------------------------------13-12-12^--|
G-----9/12---------0--------9/12------------------------|
D-------------------------------------------------------|
A-------------------------------------------------------|
E-------------------------------------------------------|
Tap to rate this tab
 
# A B C D E F G H I J K L M N O P Q R S T U V W X Y Z