Song name
# A B C D E F G H I J K L M N O P Q R S T U V W X Y Z

Black Rebel Motorcycle Club - Done All Wrong tab

DONE ALL WRONG

 
intro

  bm
e|2---------------------------------------|
B|3----3p2-3-3p2-3-3p2-3-3p2-3-2-2-2p0-2-0|
G|4---4---4-4---4-4---4-4---4-2-2-2-------|
D|4---------------------------------------|
A|0---------------------------------------|
E|0---------------------------------------|


e|---------------------------------------------------------------|
B|-3p2-3-3p2-3-3p2-3-3p2-3-2-2-2p0-2-0---3p2-3-3p2-3-3p2-3-3p2-3-|
G|4---4-4---4-4---4-4---4-2-2-2---------4---4-4---4-4---4-4---4--|
D|---------------------------------------------------------------|
A|---------------------------------------------------------------|
E|---------------------------------------------------------------|


verse

Done me wrong, done all wrong,All the wrong I've done I'm sure I'll live quite long

e|-----------------------------------------------------------------|
B|----3p2-3-3p2-3-3p2-3-3p2-3-2-2-2p0-2-0---3p2-3-3p2-3-3p2-3-3p2-3|
G|---4---4-4---4-4---4-4---4-2-2-2---------4---4-4---4-4---4-4---4-|
D|-----------------------------------------------------------------|
A|-----------------------------------------------------------------|
E|-----------------------------------------------------------------|

Done all wrong, done me wrong,All the wrong I've done I'm sure I'll live quite quite long

e|-----------------------------------------------------------------|
B|----3p2-3-3p2-3-3p2-3-3p2-3-2-2-2p0-2-0---3p2-3-3p2-3-3p2-3-3p2-3|
G|---4---4-4---4-4---4-4---4-2-2-2---------4---4-4---4-4---4-4---4-|
D|-----------------------------------------------------------------|
A|-----------------------------------------------------------------|
E|-----------------------------------------------------------------|


All the wrong I've done will be undone in song

e|-----------------------------------------|
B|--2-2-2-2-/8-8-8-8-7-7-7-7-0-3p2-3-3p2-3-|
G|-2-2-2-2--------------------4---4-4---4--|
D|-----------------------------------------|
A|-----------------------------------------|
E|-----------------------------------------|

All the wrong I've done will be undone in song

e|-----------------------------------------|
B|--2-2-2-2-/8-8-8-8-7-7-7-7-0-3p2-3-3p2-3-|
G|-2-2-2-2--------------------4---4-4---4--|
D|-----------------------------------------|
A|-----------------------------------------|
E|-----------------------------------------|



this is my first tab ,hope you'll like it
Tap to rate this tab
 
# A B C D E F G H I J K L M N O P Q R S T U V W X Y Z