Song name
# A B C D E F G H I J K L M N O P Q R S T U V W X Y Z

Black Rebel Motorcycle Club - Beat The Devils Tattoo tab

----------------------------------------------------------------------------
	     Beat The Devil's Tattoo - Black Rebel Motorcycle Club
----------------------------------------------------------------------------
Tabbed by: Lloyd
Email:


D5 = x320xx
F  = x12331
G  = 0003x3

Tuning: Standard eBGDAE

Riff based around D5 and F shapes for verses			

e|-------------------------------------------------------------------------|
B|----------------1-------------3-1----------------------------------------|
G|----0-2-2-----2---2-0-------------2-0-2-2-0-2-0--------------------------|
D|0-3-------------------3-0-----------------------3-2-0--------------------|
A|-------------------------------------------------------------------------|
E|-------------------------------------------------------------------------|
  
You have forsaken

All the love you've taken

Sleeping on a razor there's nowhere left to fall


Chorus


F	     G      D*
I thread the needle through

F            G       D*
You beat the devil's tattoo


* Try doing the little run below instead of playing D, sounds cool

e|-------------------------------------------------------------------------|
B|-10---8---6---6----------------------------------------------------------|
G|-9----7---5---7----------------------------------------------------------|
D|-0----0---0---0----------------------------------------------------------|
A|-------------------------------------------------------------------------|
E|-------------------------------------------------------------------------|

Enjoy!
Tap to rate this tab
# A B C D E F G H I J K L M N O P Q R S T U V W X Y Z