Song name
# A B C D E F G H I J K L M N O P Q R S T U V W X Y Z

Black Rebel Motorcycle Club - Beat The Devils Tattoo tab

Hi, here is my very first tab, but this had to be done to spread the good word 
song!!).

Three basic "riffs" identified so far :

+ the first one, played several times at the beginning :

e|----------------------------------------------------------------|
B|----------------------------------------------------------------|
G|--------------------------------9-7-----------------------------|
D|------7--9--9--9-12-9-9-7-----------9----7--7-5-7-9-7-----------|
A|-7-10----7--7--7-7--7-----10-7--------10-0--0---0---0-10--7-----|
E|---------0--0--0-0--0-----0--0----------------------------0-----|

You have forsaken

All the love you've taken

Sleeping on a razor there's nowhere left to fall

+ second one, when it goes "Aaah haaah ahhhh...." :

e|------------------------------------|
B|------------------------------------|
G|------------------------------------|
D|---7---------------------------5-7--|
A|-7---10--7--7--7-5-2-5-7--7--7------|
E|---------0--0--0---0---0--0---------|

+ third one, when distortion kicks in :

e|---------------------------|
B|---------------------------|
G|-4--4--4-7-4-2-------------|
D|-4--4--4-7-4-2-2---2-7-5-2-|
A|-2--2--2-5-2-0-2---2-7-5-2-|
E|---------------0---0-5-3-0-|

There might be a few additional phrases, but try this one a few times and you'll find it 
resembling.
Tap to rate this tab
 
# A B C D E F G H I J K L M N O P Q R S T U V W X Y Z