Song name
# A B C D E F G H I J K L M N O P Q R S T U V W X Y Z

Black Rebel Motorcycle Club - Beat The Devils Tattoo tab

Ladies and gents,

this is my first tab, i hope you'll feel right with it.

BLACK REBEL MOTORCYCLE CLUB
Beat The Devil's Tattoo


Your guitar has to be tuned to OPEN E MINOR.

That means:

e -----------------------| e
B -----------------------| B
G -----------------------| G
D -> two half steps up -> E
A -> two half steps up -> B
E ----------------------> E


Now you have to play all the strings open, and play the following tabs through it (you 
get it if you listen to the original song)! And you can give it more rythm and feeling if 
don't always play all the strings ...

Intro & Verse

e|0-------------------------------------------------0----------------|
B|0-------------------------------------------------0----------------|
G|0--------------------------9-7---0------0-------0-0----------------|
E|0-3-5-7--7--7-10-7-5-3--0------7---5--5---5-7-5---0----------------|
B|0----------------------------------5--5---5---5---0----------------|
E|0----------------------------------5--5---5---5---0----------------|

Chorus

e|0------------------------------0--------------------0--------------|
B|0------------------------------0--------------------0--------------|
G|0------------------------------0--------------------0--------------|
E|0--------------0-------0--0--0-0-3-5-7--7--7-10-7---0--------------|
B|0----------------3-0-3---------0-3-5-7--7--7----7-8-0--------------|
E|0-3-5-3--0--0------------------0-3-5-7--7--7----7---0--------------|

Bridge

e|0-------------------0---------------|
B|0-------------------0---------------|
G|0-------------------0---------------|   3x
E|0-5b--3-5--5--3--2--0---------------|
B|0-------5--5--3--2--0---------------|
E|0-------5--5--3--2--0---------------|


e|0--------------------0--------------|
B|0--------------------0--------------|
G|0--------------------0--------------|   1x
E|0-3-5-7--7--7-10-7---0--------------|
B|0-3-5-7--7--7----7-8-0--------------|
E|0-3-5-7--7--7----7---0--------------|


Have fun with it.
Tap to rate this tab
# A B C D E F G H I J K L M N O P Q R S T U V W X Y Z