Song name
# A B C D E F G H I J K L M N O P Q R S T U V W X Y Z

Black Rebel Motorcycle Club - Lien On Your Dreams tab

I've only got a chunk of the song. Just the verse and chorus. Great song.

Tuning: Standard

The droning intro part

e|---------------------------------------------------------------------------|
B|---------------------------------------------------------------------------|
G|---------------------------------------------------------------------------|
D|---------------------------------------------------------------------------|
A|---------------------------------------------------------------------------|
E|-3-3-3-3-3-3-3-3-3-3-3-3-3-3-3-3-3-3-3-3-----------------------------------|

You get the picture. It's repetitive. With the right effects you can get the right sound 
you are jamming by yourself.


The intro/verse part

e|---------------------------------------------------------------------------|
B|---------------------------------------------------------------------------|
G|---------------------------------------------------------------------------|
D|---------------------------------------------------------------------------|
A|-5-3-8-8/10-5-3-8-8/10-----------------------------------------------------|
E|-3-1-6-6/8--3-1-6-6/8------------------------------------------------------|

This verse part too is repetitive. Very easy song.

Chorus

e|---------------------------------------------------------------------------|
B|---------------------------------------------------------------------------|
G|---------------------------------------------------------------------------|
D|---------------------------------------------------------------------------|
A|-5-5-5-5-5-5-5-5-8-8-8-8-8-8-8-8-10101010101010108-8-8-8-8-8-8-8-----------|
E|-3-3-3-3-3-3-3-3-6-6-6-6-6-6-6-6-8-8-8-8-8-8-8-8-6-6-6-6-6-6-6-6-----------|

That's pretty much it. Listen to the song for the right moments to use power chords. It 
up. Enjoy.

Message me if you have any questions.
Tap to rate this tab
 
# A B C D E F G H I J K L M N O P Q R S T U V W X Y Z