Song name
# A B C D E F G H I J K L M N O P Q R S T U V W X Y Z

Black Rebel Motorcycle Club - Salvation tab

>>B.R.M.C - Salvation<<
-----------------------


   Verse      Bridge
   -----      ------
   A  D       A  A7 A  D

e--0--0-------0--0--0--0------------------|
b--2--7-------2--2--2--7------------------|
G--2--7-------2--0--2--7------------------|
D--2--7-------2--2--2--7------------------|
A--0--0-------0--0--0--0------------------|
E-----------------------------------------|

   Bridge Riff
   -----------
   A     A7  A           D
e---------------------------------|
b---------------------------------|
G---------------------------------|
D--2--2--2h5h7--7--7--2--0--5-----|
A--0--0--0-0-0--0--0--0--0--4-----|
E---------------------------5-----|

   Chorus
   ------
   C  D  A

e--0--0--0-----------------------|
b--1--3--2-----------------------|
G--0--0--2-----------------------|
D--2--4--2-----------------------|
A--3--5--0-----------------------|
E--------------------------------|

Verse:
-------
A  D              A
So Jesus left you lonely
Feels like nothing's really holy
No one no one hears your calling
Falling everything is falling


Bridge:
-------
A  A7  A    D
Do you feel alive?
Can you feel alive?
Do you feel alive?
Can you feel alive?

Verse:
------
So Jesus left you lonely
Feels like nothings really holy
No one no one hears your calling
Falling everything is falling

Bridge:
-------
Do you feel alive?
Can you feel alive?
Do you feel alive?
Can you feel alive?
Try so hard just to speak to you
Nothing ever seems to come through
Circumstances on the breaking back
Try to sit down is a therapy

Chorus:
-------
C D   A
Oh salvation
Oh salvation

Do you feel alive?
Can you feel alive?
Do you feel alive?
Can you feel alive?


--------------------------------------------------------------
tabbed by LIAMBLACKREBEL (Vishnu Splinter,Guided By Confusion)
--------------------------------------------------------------
Tap to rate this tab
# A B C D E F G H I J K L M N O P Q R S T U V W X Y Z