Song name
# A B C D E F G H I J K L M N O P Q R S T U V W X Y Z

Black Rebel Motorcycle Club - Whatever Happened To My Rock N Roll tab

Song: Whatever Happened to My Rock 'n' Roll (Punk Song)
Artist: Black Rebel Motorcycle Club
Album: B.R.M.C.
Tab by: Michael Massberg

This is the BASS-INTRO (just in case
you wanna play it on guitar):

   A

G-----------------------------------|
D-----------------------------------|
A------3-------3-------3---6-3------|
E--5-5---5-5-5---5-5-5---5-----5-3--|


MAIN RIFF:

   A

E-----------------------------------|
B-----------------------------------|
G-----------------------------------|
D--2-2-2-2-2-2-2-2-2-2-2-2-2--------|
A--0-0-3-0-0-0-3-0-0-0-3-0-0-6-6-6--|
E-----------------------------------|


VERSE:

Same as Main Riff, just stop playing
the minor/blue third ("3" on A-string).


CHORUS:

   D               C

E-----------------------------------|
B-----------------------------------|
G-----------------------------------|
D--7-7-7-7-7-7-7-7-5-5-5-5-5-5-5-5--|
A--5-5-5-5-5-5-5-5-3-3-3-3-3-3-3-3--|
E-----------------------------------|

Then go back to the Main Riff.

OUTRO (out of tune):

   D     C     A

E--------------------------|
B--7~~~--5~~~--2~~~--~~~~--|
G--7~~~--5~~~--2~~~--~~~~--|
D--7~~~--5~~~--2~~~--~~~~--|
A--5~~~--3~~~--0~~~--~~~~--|
E--------------------------|
Tap to rate this tab
 
# A B C D E F G H I J K L M N O P Q R S T U V W X Y Z