Song name
# A B C D E F G H I J K L M N O P Q R S T U V W X Y Z

Black Rebel Motorcycle Club - The Line tab

-------------------------------------------------------------------------------
			     The Line - Black Rebel Motorcycle Club
-------------------------------------------------------------------------------
Tabbed by: chris
Email: myspace.com/vincevegamusik


Tuning: standard


first part.

e|---------------------------------------------------------------------------|
B|---------------------------------------------------------------------------|
G|---------------------------------------------------------------------------|
D|--1----2----3----2---------------------------------------------------------|
A|--3----3----3----3---------------------------------------------------------|
E|--3----3----3----3---------------------------------------------------------|



second part.

e|---------------------------------------------------------------------------|
B|---------------------------------------------------------------------------|
G|---------------------------------------------------------------------------|
D|--8-----8-----7-----5--7--5--7---------------------------------------------|
A|--10----8-----8-----6--6--6--6---------------------------------------------|
E|--10----10----10----6--6--6--6---------------------------------------------|



thats it. just the chords. listen to the song. mostly downstrokes.
Tap to rate this tab
 
# A B C D E F G H I J K L M N O P Q R S T U V W X Y Z