Song name
# A B C D E F G H I J K L M N O P Q R S T U V W X Y Z

Black Rebel Motorcycle Club - Fail Safe tab

Artist - Black Rebel Motorcycle Club

Song - Fail Safe

B-Side of my favourite band.

Not 100%

High E 	-> 	down to D
B 	-> 	down to G
G	-> 	stays at G
D 	-> 	stays at D
A 	-> 	down to G
low E 	-> 	up to G

CAPO 2ND Fret

I know Pete plays it without a capo thats becasue its AAEAAe
tuning but this is the best workaround without restringing.


Main Riff x3

---------------------------------------------|
---------------------------------------------|
---------------------------------------------|
-----0---0-2---3----0-2----------------------|
-0-----0----------0-----3-2~--0--------------|
---------------------------------------------|

Chords (Slide)
Not sure of the name of the chords

Verse

A	C	D

0	3	5
0	3	5
0	3	5	x4
0	3	5
0	3	5
0	3	5


A	A2

0	12
0	12
0	12
0	12
0	12
0	12

Chorus

-----------------------------------0---12------|
-----------------------------------0---12------|
--------9-9-9-9------7b-7-7b-7-7---0---12------|  Repeat x2
---9-10----------------------------0---12------|
-----------------------------------0---12------|
-----------------------------------0---12------|


Main Riff


Verse


Main Riff


then


Bridge

Chords (Slide)

F	E	C#	G

8	7	4	10
8	7	4	10
8	7	4	10	x2
8	7	4	10
8	7	4	10
8	7	4	10

-----------------------0----------------------|
-----------------------0----------------------|
---5b-5-3-------3------0----------------------|	Repeat x3
----------5-3-5---5-3B-0----------------------|
-----------------------0----------------------|
-----------------------0----------------------|

Verse

Chorus

Main Riff

Bridge

End

Keep sliding between the two chords

E	F	E	F

7	8	7	8
7	8	7	8
7	8	7	8
7	8	7	8
7	8	7	8
7	8	7	8

any suggestions/feedback please email me.

milkyjoe1@live.co.uk
Tap to rate this tab
 
# A B C D E F G H I J K L M N O P Q R S T U V W X Y Z