Black Rebel Motorcycle Club - Sympathetic Noose tab

Black Rebel Motorcycle Club - "Sympathetic Noose"
Tab by matt062286

   This is based off a live acoustic performance by Robert, 
   so it might vary slightly from the album version. Times 
   in parentheses correspond to album track.


Standard Tuning (EADGBe)


INTRO (0:01)

    G                              C
e|--3-3-3--3--3-3-0-0-0-3--0--0--0----0--0-0-0--0--0-0-0-0-0-0--|
B|--0-0-0--0--0-0-3/5-5-5--3--0--0h1--1--1-1-1--1--1-1-1-3-3-1--|
G|--0-0-0--0--0-0-0-0-0-0--0--0--0----0--0-0-0--0--0-0-0-0-0-0--|
D|--0-0-0--0--0-0-0-0-0-0--0--0--0h2--2--2-2-2--2--2-2-2-2-2-2--|
A|--2-2-2--2--2-2----------------0h3--3--3-3-3--3--3-3-3-3-3-3--|  
E|--3-3-3--3--3-3-----------------------------------------------| 


INTRO/VERSE (0:05)

    G                             C
e|--0--3--3--3-3-0-0-0-3--0--0--0----0--0-0-0--0--0-0-0-0-0-0--|
B|--0--0--0--0-0-3/5-5-5--3--0--0h1--1--1-1-1--1--1-1-1-3-3-1--|
G|--0--0--0--0-0-0-0-0-0--0--0--0----0--0-0-0--0--0-0-0-0-0-0--|
D|--0--0--0--0-0-0-0-0-0--0--0--0h2--2--2-2-2--2--2-2-2-2-2-2--|
A|--2--2--2--2-2----------------0h3--3--3-3-3--3--3-3-3-3-3-3--| 
E|--3--3--3--3-3-----------------------------------------------| 
                                              "I've got a feeling..."

(VERSE ALTERNATE)
    G                             C
e|--0--3--3--3-3-0-0-0-3--0--0--0----0--0-0-0--0--0-0-0-0-0-0--|
B|--0--0--0--0-0-3/5-5-5--3--0--0h1--1--1-1-1--1--1-1-1-1-1-1--|
G|--0--0--0--0-0-0-0-0-0--0--0--0----0--0-0-0--0--0-0-0-0-0-0--|
D|--0--0--0--0-0-0-0-0-0--0--0--0h2--2--2-2-2--2--2-2-2-2-2-2--|
A|--2--2--2--2-2----------------0h3--3--3-3-3--3--3-3-3-3-3-3--| 
E|--3--3--3--3-3-----------------------------------------------|

 
PRE-CHORUS (1:13)

              G        C              G
e|------------3-3-3-3--0--------------3-3-3--3-3--|
B|--0-0--0-0--0-0-0-0--1----0-0--0-0--0-0-0--0-0--|
G|--0-0--0-0--0-0-0-0--0----0-0--0-0--0-0-0--0-0--|
D|--0-0--0-0--0-0-0-0--2----0-0--0-0--0-0-0--0-0--|
A|--x-x--x-x--2-2-2-2--3----x-x--x-x--2-2-2--2-2--|
E|--1h3--1h3--3-3-3-3-------1h3--1h3--3-3-3--3-3--|
             "You gotta keep         "You gotta let
              your head up,"          youself get.."
 
    C          Em              Am
e|--0--0--0-0--0--0--0-0--| |--0----------------|
B|--1--1--1-1--0--0--0-0--| |--1----------------|
G|--0--0--0-0--0--0--0-0--| |--2----------------|
D|--2--2--2-2--2--2--2-2--| |--2----------------|
A|--3--3--3-3--2--2--2-2--| |--0----------------|
E|-------------0--0--0-0--| |-------------------|
"...through....oooh............oooh......."



CHORUS (1:23)

    Am                       C
e|---------------------------0---------|
B|---------------------------1---------|
G|---------------------------0---------|
D|---------------------------2---------|
A|---------------------------3---------|
E|-------------------------------------|
       "When all you'll ever dream,"


                    Em                       D                      Am
e|------------------0------------------------2----------------------0------|
B|------------------0------------------------3----------------------1------|
G|------------------0------------------------2----------------------2------|
D|------------------2------------------------0----------------------2------|
A|------------------2------------------------0----------------------0------|
E|------------------0-----------------------------------------------0------|
  "Lifts you up too high," "As all your expectations leave a hole inside..."


CHORUS OUTRO (1:52)

e|--0--0-0-0--0--0-0-0-0-0-0--|
B|--1--1-1-1--1--1-1-1-3-3-1--|
G|--0--0-0-0--0--0-0-0-0-0-0--|
D|--2--2-2-2--2--2-2-2-2-2-2--|
A|--3--3-3-3--3--3-3-3-3-3-3--| 
E|----------------------------|



INTRO X1
INTRO/VERSE X11

PRE-CHORUS X1
CHORUS X2
CHORUS OUTRO X1

INTRO/VERSE X10

PRE-CHORUS X1
CHORUS X2
CHORUS OUTRO X1

INTRO/VERSE (to fade out)
Tap to rate this tab
 
# A B C D E F G H I J K L M N O P Q R S T U V W X Y Z