Black Rebel Motorcycle Club - Too Real tab

Black Rebel Motorcycle Club - "Too Real"
Tab by matt062286

_______________________________________________________________

Modified Open D Tuning (D G# D F# A D)


INTRO (Clean)

D  |--0-------------------------------0---------------|
A  |--0-------------------------------0---------------|
F# |--0-------------------------------6---------------|
D  |--7-------------------------------6---------------|    x2
G# |--6-------------------------------0---------------|  
D  |--0-------------------------------6---------------| 


VERSE INTRO
Rhythm (Clean Electric)
D  |--0-------------------------------0---------------|
A  |--0-------------------------------0---------------|
F# |--0-------------------------------0---------------|
D  |--7-------------------------------6---------------|
G# |--6-------------------------------0---------------|    x2
D  |--0-------------------------------6---------------|

Lead (Electric, some gain, some delay too I think)
D  |--------------------------------------------------|
A  |--------------------------------------------------|
F# |--------------------------------------------------|
D  |--10b---10b---10b---10b---10b-10b-----------------|
G# |----------------------------------10--------------|    x2
D  |--------------------------------------------------|


VERSE
Rhythm (Clean)
D  |--0-------------------------------0---------------|
A  |--0-------------------------------0---------------|
F# |--0-------------------------------0---------------|
D  |--7-------------------------------6---------------|
G# |--6-------------------------------0---------------|    x6
D  |--0-------------------------------6---------------|

Lead (with gain)
D  |--------------------------------------------------|
A  |--------------------------------------------------|
F# |--8p7-8p7p0----8p7-8p7p0--------------------------|
D  |----------------------------------6---------------|
G# |----------------------------------------(6)-------|
D  |--------------------------------------------------|

D  |--------------------------------------------------|
A  |--------------------------------------------------|
F# |--8p7-8p7p0----8p7-8p7p0--------------------------|
D  |---------------------------------(6)----(7\)------|
G# |--------------------------------------------------|
D  |--------------------------------------------------|

D  |--------------------------------------------------|
A  |--------------------------------------------------|
F# |--8p7-8p7p0----8p7-8p7p0----8p7-8p7p0-------------|
D  |--------------------------------------------------|
G# |----------------------------------------(6)-------|
D  |--------------------------------------------------|

D  |--------------------------------------------------|
A  |--------------------------------------------------|
F# |--8p7-8p7p0----8p7-8p7p0--------------------------|
D  |----------------------------------6---------------|
G# |--------------------------------------------------|
D  |--------------------------------------------------|

CHORUS
Rhythm (Clean)
D  |---0----------0-----------0-----------0-----------|
A  |---0----------0-----------0-----------0-----------|
F# |--12----------7----------10-----------5-----------|
D  |--12----------7----------10-----------5-----------|
G# |--10----------5-----------8-----------3-----------|    x2
D  |--(0)--------(0)---------(0)---------(0)----------|


VERSE 2
Rhythm (Clean)
D  |--0-------------------------------0---------------|
A  |--0-------------------------------0---------------|
F# |--0-------------------------------0---------------|
D  |--7-------------------------------6---------------|
G# |--6-------------------------------0---------------|    x6
D  |--0-------------------------------6---------------|

Lead (with gain)
D  |--------------------------------------------------|
A  |--------------------------------------------------|
F# |--8p7-8p7p0----8p7-8p7p0--------------------------|
D  |--------------------------------------------------|
G# |--------------------------------------------------|    x4
D  |--------------------------------------------------|

BRIDGE
Rhythm (Clean)
D  |--0-------------------------------0---------------|
A  |--0-------------------------------0---------------|
F# |--3-------------------------------5---------------|
D  |--3-------------------------------5---------------|
G# |--1-------------------------------3---------------|    x6
D  |-(0)-----------------------------(0)--------------|


(fade in)
INTRO
VERSE INTRO
VERSE
CHORUS
VERSE INTRO (without lead part)
VERSE 2
CHORUS
BRIDGE
CHORUS x3
(fade out)
Tap to rate this tab
 
# A B C D E F G H I J K L M N O P Q R S T U V W X Y Z