Black Rebel Motorcycle Club - Done All Wrong tab

Tuning: Standard EADGBe
Capo: 2nd fret
Tabbbed by: Charlie

Part 1

e|---------------------------------------------|
B|--0--------0---0---0---0---0-----0---0---0---|
G|--5----------5-------5--------5--------5-----|
D|--7--------------7-----------------7---------|
A|--0------0---------------0-------------------|
E|---------------------------------------------|


Part 2

e|--------------------|
B|--------------------|
G|----0---0---0---0---|    
D|--0---2---5---7-----|   
A|--------------------|
E|--------------------|


When he starts to sing "All the wrong I've done will be undone in song", it starts 
to play something along the lines of:

e|-------------------|
B|---6-6-6-5-5-5-----|     And then Part 1 plays again.
G|---------------0---|          I know these are the right notes, but.
D|-------------------|     <---  there are additional notes I haven't 
A|-------------------|                    figured out, yet.
E|-------------------|


That's all I've got :)
Tap to rate this tab
 
# A B C D E F G H I J K L M N O P Q R S T U V W X Y Z