Black Rebel Motorcycle Club - Weapon Of Choice tab

Song: Weapon of Choice
Artist: Black Rebel Motorcycle Club
Album: Baby 81
Tuning: Standard

Capo 1st Fret

Tabbed By: Indie Nation
                                                             
F |----------------------------|----------------------------|
C |----------------------------|----------------------------|
G#|----------------------------|----------------------------|
Eb|--2-----2-----2-----2-------|--2-----2-----2-----2-------|
Gb|--2--2--2--2--2-----2--2----|--2--2--2--2--2--2--2--2----|
F |--0--3--0-----0-----0-------|--0--3--0-----0-----0-------|

                                                          
----------------------------|----------------------------|
----------------------------|----------------------------|
----------------------------|----------------------------|
--2-----2-----2-----2-------|-----5--5s-7--7--7--7-------|
--2--2--2--2--2-----2--2----|--2--5--5s-7--7--7--7-------|
--0--3--0-----0-----0-------|-----3--3s-5--5--5--5-------|

                                                          
----------------------------|----------------------------|
----------------------------|----------------------------|
----------------------------|----------------------------|
--2-----2-----2-----2-------|--2-----2-----2-------------|
--2--2--2--2--2-----2--2----|--2--2--2--2--2--2----------|
--0--3--0-----0-----0-------|--0--3--0-----0-------------|

                                                          
----------------------------|----------------------------|
----------------------------|----------------------------|
----------------------------|----------------------------|
--2-----2-----2-----2-------|--5--5--5s-7--7--7--7-------|
--2--2--2--2--2-----2--2----|--5--5--5s-7--7--7--7-------|
--0--3--0-----0-----0-------|--3--3--3s-5--5--5--5-------|

                                                          
----------------------------|----------------------------|
----------------------------|----------------------------|
----------------------------|----------------------------|
--2-----2-----2-----2-------|--2-----2-----2-----2-------|
--2--2--2--2--2-----2--2----|--2--2--2--2--2--2--2--2----|
--0--3--0-----0-----0-------|--0--3--0-----0-----0-------|

                                                          
----------------------------|----------------------------|
----------------------------|----------------------------|
----------------------------|----------------------------|
--2-----2-----2-----2-------|-----5--5s-7--7--7--7-------|
--2--2--2--2--2-----2--2----|--2--5--5s-7--7--7--7-------|
--0--3--0-----0-----0-------|-----3--3s-5--5--5--5-------|

                                                          
----------------------------|----------------------------|
----------------------------|----------------------------|
----------------------------|----------------------------|
--2-----2-----2-----2-------|--2-----2-----2-----2-------|
--2--2--2--2--2-----2--2----|--2--2--2--2--2--2--2--2----|
--0--3--0-----0-----0-------|--0--3--0-----0-----0-------|

                                                          
----------------------------|----------------------------|
----------------------------|----------------------------|
----------------------------|----------------------------|
--2-----2-----2-----2-------|--5--5--5--5s-7--7--7-------|
--2--2--2--2--2-----2--2----|--5--5--5--5s-7--7--7-------|
--0--3--0-----0-----0-------|--3--3--3--3s-5--5--5-------|

                                                          
----------------------------|----------------------------|
----------------------------|----------------------------|
----------------------------|----------------------------|
----------------------------|----------------------------|
--------------0-------------|--------------0-------------|
--0--12s0--0-----3b----0----|--0--12s0--0-----3b----0----|

                                                          
----------------------------|----------------------------|
----------------------------|----------------------------|
----------------------------|----------------------------|
----------------------------|-----0--2--------0--2-------|
--------------0-------------|----------------------------|
--0--12s0--0-----3b----0----|--0--------0--0--------0----|

                                                          
----------------------------|----------------------------|
----------------------------|----------------------------|
----------------------------|----------------------------|
----------------------------|----------------------------|
--------------0-------------|--------------0-------------|
--0--12s0--0-----3b----0----|--0--12s0--0-----3b----0----|

                                                          
----------------------------|----------------------------|
----------------------------|----------------------------|
----------------------------|----------------------------|
----------------------------|-----0--2--------0--2-------|
--------------0-------------|----------------------------|
--0--12s0--0-----3b----0L---|--0--------0--0--------0----|

                                                         
----------------------------|----------------------------|
-----8--8b----5-----5-------|-----8--8b----5-----5-------|
-----------------------4----|-----------------------4----|
----------------------------|----------------------------|
----------------------------|----------------------------|
----------------------------|----------------------------|

                                                          
----------------------------|----------------------------|
-----8--8b----5-----5-------|--------------------5-------|
-----------------------4----|--7--7--7--4--7b------------|
----------------------------|----------------------------|
----------------------------|----------------------------|
----------------------------|----------------------------|

                                                          
----------------------------|----------------------------|
-----8--8b----5-----5-------|-----8--8b----5-----5-------|
-----------------------4----|-----------------------4----|
----------------------------|----------------------------|
----------------------------|----------------------------|
----------------------------|----------------------------|

                                                          
----------------------------|----------------------------|
-----8--8b----5-----5-------|--------------------5-------|
-----------------------4----|--7--7--7--4--7b------------|
----------------------------|----------------------------|
----------------------------|----------------------------|
----------------------------|----------------------------|

                                                          
----------------------------|----------------------------|
----------------------------|----------------------------|
----------------------------|----------------------------|
-----------------------2----|--2-------------------------|
----------------------------|----------------------------|
--0-----0-----0-----0-------|-----0--3b----3b----3b------|

                             
----------------------------|
----------------------------|
----------------------------|
-----------------------2----|
----------------------------|
--0-----0-----0-------------|

                                                                                
--------------------------------------|
--------------------------------------|
-----------------------------------9--|
--19s21s---12----------12------12-----|
--------------------------------------|
--0--------------------0--------------|

                                                     
----------------------------|
----------------------------|
----------------------------|
--2--5--2-----2-----2-------|
-----------2--2~----2--2----|
--------------0-------------|

                                                          
----------------------------|----------------------------|
----------------------------|----------------------------|
----------------------------|----------------------------|
--2--5--2-----2-----2-------|--2--5--2-----2-----2-------|
-----------2--2--2----------|-----------2--2~-------2~---|
--------------0~------------|--------------0-------------|

                                                          
----------------------------|----------------------------|
----------------------------|----------------------------|
----------------------------|----------------------------|
--5--5--5--5--5s-7--7-------|--2--5--2-----2-----2-------|
--5--5--5--5--5s-7--7-------|--2--------2--2-----2--2----|
--3--3--3--3--3s-5--5-------|--------------0-------------|

                                                          
----------------------------|----------------------------|
----------------------------|----------------------------|
----------------------------|----------------------------|
--2--5--2-----2-----2-------|--2--5--2-----2-----2-------|
--2--------2--2--2--2--2----|--2--------2--2-----2--2----|
--------------0-------------|--------------0-------------|

                                                          
----------------------------|----------------------------|
----------------------------|----------------------------|
----------------------------|----------------------------|
--5--5--5--5--5s-7--7-------|----------------------------|
--5--5--5--5--5s-7--7-------|--------------0-------------|
--3--3--3--3--3s-5--5-------|--0--12s0--0-----3b----0----|

                                                          
----------------------------|----------------------------|
----------------------------|----------------------------|
----------------------------|----------------------------|
----------------------------|----------------------------|
--------------0-------------|--------------0-------------|
--0--12s0--0-----3b----0----|--0--12s0--0-----3b----0----|

                                                          
----------------------------|----------------------------|
----------------------------|----------------------------|
----------------------------|-----2b----0--2-------------|
-----0--2--------0--2-------|----------------------------|
----------------------------|----------------------------|
--0--------0--0--------0----|--0--------------3b----0----|

                                                          
----------------------------|----------------------------|
----------------------------|----------------------------|
-----2b----0--2-------------|-----2b----0--2-------------|
----------------------------|----------------------------|
----------------------------|----------------------------|
--0--------------3b----0----|--0--------------3b----0----|

                                                          
----------------------------|----------------------------|
----------------------------|-----8--8b----5-----5-------|
----------------------------|-----------------------4----|
-----0--2--------0--2-------|----------------------------|
----------------------------|----------------------------|
--0--------0--0--------0----|----------------------------|

                                                          
----------------------------|----------------------------|
-----8--8b----5-----5-------|-----8--8b----5-----5-------|
-----------------------4----|-----------------------4----|
----------------------------|----------------------------|
----------------------------|----------------------------|
----------------------------|----------------------------|

                                                          
----------------------------|----------------------------|
--------------------5-------|-----8--8b----5-----5-------|
--7--7--7--4--7b------------|-----------------------4----|
----------------------------|----------------------------|
----------------------------|----------------------------|
----------------------------|----------------------------|

                                                          
----------------------------|----------------------------|
-----8--8b----5-----5-------|-----8--8b----5-----5-------|
-----------------------4----|-----------------------4----|
----------------------------|----------------------------|
----------------------------|----------------------------|
----------------------------|----------------------------|

                                                          
----------------------------|----------------------------|
--------------------5-------|----------------------------|
--7--7--7--4--7b------------|----------------------------|
----------------------------|-----------------------2----|
----------------------------|----------------------------|
----------------------------|--0-----0-----0-----0-------|

                                                          
----------------------------|----------------------------|
----------------------------|----------------------------|
----------------------------|----------------------------|
--2-------------------------|-----------------------2----|
----------------------------|----------------------------|
-----0--3b----3b----3b------|--0-----0-----0-----0-------|

--------------------------------------|
--------------------------------------|
-----------------------------------9--|
--19s21s---12----------12------12-----|
--------------------------------------|
--0--------------------0--------------|
                                                                                
------------------------|
------------------------|
--2--2--2--2s-3---x--2--|
--2--2--2--2----2----2--|
------------------------|
------------------------|
                                                                                
  
------------------------|
------------------------|
--2--2--2--2s-3---x--2--|
--2--2--2--2----2----2--|
------------------------|
------------------------|

  
------------------------|
------------------------|
--2--2--2--2s-3---x--2--|
--2--2--2--2----2----2--|
------------------------|
------------------------|

  
------------------------|
------------------------|
--2--2--2--2s-3---x--2--|
--2--2--2--2----2----2--|
------------------------|
------------------------|
                                                    
----------------------------|
----------------------------|
-----------12s---0-----0----| x3
--14b14-14------------------|
--14-14-14------------------|
--12-12-12------------------|
                                                        
----------------------------|
----------------------------|
-----------12s--------------|
--14b14-14-------5s----7----|
--14-14-14------------------|
--12-12-12------------------|

                                                                                
------------------------|
------------------------|
--2--2--2--2s-3---x--2--|
--2--2--2--2----2----2--|
------------------------|
------------------------|

  
------------------------|
------------------------|
--2--2--2--2s-3---x--2--|
--2--2--2--2----2----2--|
------------------------|
------------------------|

  
------------------------|
------------------------|
--2--2--2--2s-3---x--2--|
--2--2--2--2----2----2--|
------------------------|
------------------------|
        
----------------------------|
----------------------------|
----------------------------|
--9--9--11-9--12----2--9----|
--7--7--7--7--7-----2--7----|
-----------------0--0-------|
    
----------------------------|----------------------------|
----------------------------|----------------------------|
----------------------------|----------------------------|
--9--9--11-9--12----2--9----|--9--9--11-9--12----2--7----|
--7--7--7--7--7-----2--7----|--7--7--7--7--7-----2--5----|
-----------------0--0-------|-----------------0--0-------|
 
----------------------------|----------------------------|
----------------------------|----------------------------|
----------------------------|----------------------------|
--7--7--7--7--7s-9--9-------|--9--9--11-9--12----2--9----|
--5--5--5--5--5s-7--7-------|--7--7--7--7--7-----2--7----|
-----------------------0----|-----------------0--0-------|

----------------------------|----------------------------|
----------------------------|----------------------------|
----------------------------|----------------------------|
--9--9--11-9--12----2--9----|--9--9--11-9--12----2--7----|
--7--7--7--7--7-----2--7----|--7--7--7--7--7-----2--5----|
-----------------0--0-------|-----------------0--0-------|


----------------------------|----------------------------|
----------------------------|-----8--8b----5-----5-------|
----------------------------|-----------------------4----|
--7--7--7--7--7--9--9-------|----------------------------|
--5--5--5--5--5--7--7-------|----------------------------|
-----------------------0----|----------------------------|


----------------------------|----------------------------|
-----8--8b----5-----5-------|-----8--8b----5-----5-------|
-----------------------4----|-----------------------4----|
----------------------------|----------------------------|
----------------------------|----------------------------|
----------------------------|----------------------------|


----------------------------|----------------------------|
--------------------5-------|--5--5--5--5--5--5--5--5----|
--7--7--7--4--7b------------|--2--2--2--2--2--2--2--2----|
----------------------------|--2--2--2--2--2--2--2--2----|
----------------------------|--0--0--0--0--0--0--0--0----|
----------------------------|----------------------------|


----------------------------|----------------------------|
--5--5--5--5--5--5--5--5----|--7--7--7--7--7--7--7b-7b---|
--2--2--2--2--2--2--2--2----|----------------------------|
--2--2--2--2--2--2--2--2----|----------------------------|
--0--0--0--0--0--0--0--0----|----------------------------|
----------------------------|----------------------------|


----------------------------|----------------||
--7b-7b-7b-7b-7b-7b-7b-7b---|----------------||
----------------------------|----------------||
----------------------------|----------------||
----------------------------|----------------||
----------------------------|--0~~~----------||
Tap to rate this tab
 
# A B C D E F G H I J K L M N O P Q R S T U V W X Y Z