Song name
# A B C D E F G H I J K L M N O P Q R S T U V W X Y Z

Black Rebel Motorcycle Club - Beat The Devils Tattoo tab

                      Beat the devil's tattoo
                    Black rebal motorcycle club

This is a great song b.r.m.c. Its in stanard tuning so isnt 100% as they play in 
open e tuning but still sounds pretty good on acoustic. Enjoy.............

Tabbed by:darkfox
Email:mhugh09@yahoo.com

Tuning:Standard

e|----------------------------------------------------------------|
B|----------------------------------------------------------------| 2xintro
G|--------------------------------9-7-----------------------------| 
D|------7--9--9--9-12-9-9-7-----------9----7--7-5-7-9-7-----------| 
A|-7-10----7--7--7-7--7-----10-7--------10-0--0---0---0-----------|
E|---------0--0--0-0--0-----0--0----------------------------------|

 You have forsaken all the love youíve taken
 Sleeping on a razor thereís nowhere left to fall
 Your bodyís aching every bone is breaking
 Nothing seems to shake it it just keeps holding on
 Ah ah ah ah

e|----------------------------------------------------------------|
B|----------------------------------------------------------------| ah ah ah 
G|----------------------------------------------------------------| 
D|-5-7-5--9-9-9-7-4-7-9-9-9---2-5-7-9-9-9-12-9-7--9-9-9-----------| play x2
A|-0-0-0--7-7-7-5-2-5-7-7-7---2-5-7-9-9-9-12-9-7--7-7-7-----------|
E|--------0-0-0-0-0-0-0-0-0---0-3-5-7-7-7-10-7-5--0-0-0-----------|


e|----------------------------------------------------------------|
B|----------------------------------------------------------------|
G|--------------------------------9-7-----------------------------|
D|------7--9--9--9-12-9-9-7-----------9----7--7-5-7-9-7-----------|
A|-7-10----7--7--7-7--7-----10-7--------10-0--0---0---0-----------|
E|---------0--0--0-0--0-----0--0----------------------------------|

 Your soul is able death is all you cradle
 Sleeping on the nails thereís nowhere left to fall
 You have admired every man desires
 Everyone is king when thereís no one left to pawn
 Ah ah ah ah

e|----------------------------------------------------------------|
B|----------------------------------------------------------------| ah ah ah 
G|----------------------------------------------------------------| 
D|-5-7-5--9-9-9-7-4-7-9-9-9---2-5-7-9-9-9-12-9-7--9-9-9-----------| play x2
A|-0-0-0--7-7-7-5-2-5-7-7-7---2-5-7-9-9-9-12-9-7--7-7-7-----------|
E|--------0-0-0-0-0-0-0-0-0---0-3-5-7-7-7-10-7-5--0-0-0-----------|


e|----------------------------|
B|----------------------------| plays 2 times  
G|----------------------------| for ah ah ah
D|--9-9-9-9-7-7-5-5-2-2-2-2---| 
A|--9-9-9-9-7-7-5-5-2-2-2-2---|
E|--7-7-7-7-5-5-3-3-0-0-0-0---|


e|----------------------------------------------------|
B|----------------------------------------------------| plays the same again   
G|----------------------------------------------------| but this time plays  
D|--9-9-9-9-7-7-5-5-2-2-2-2---9-9-9-12-9-7--9-9-9-----| extra part at end
A|--9-9-9-9-7-7-5-5-2-2-2-2---9-9-9-12-9-7--7-7-7-----|
E|--7-7-7-7-5-5-3-3-0-0-0-0---7-7-7-10-7-5--0-0-0-----|


e|----------------------------------------------------------------|
B|----------------------------------------------------------------| 
G|--------------------------------9-7-----------------------------| Play x2 
D|------7--9--9--9-12-9-9-7-----------9----7--7-5-7-9-7-----------| 
A|-7-10----7--7--7-7--7-----10-7--------10-0--0---0---0-----------|
E|---------0--0--0-0--0-----0--0----------------------------------|

 There is no peace here war is never cheap dear
 Love will never meet it it just gets sold for parts
 You cannot fight it all the world denies it
 Open up your eyelids and let your demons run
 Ah ah ah

e|----------------------------------------------------------------|
B|----------------------------------------------------------------| ah ah ah 
G|----------------------------------------------------------------| 
D|-5-7-5--9-9-9-7-4-7-9-9-9---2-5-7-9-9-9-12-9-7--9-9-9-----------| play x2
A|-0-0-0--7-7-7-5-2-5-7-7-7---2-5-7-9-9-9-12-9-7--7-7-7-----------|
E|--------0-0-0-0-0-0-0-0-0---0-3-5-7-7-7-10-7-5--0-0-0-----------|



e|-------------------|
B|-------------------|
G|--9-9-10-9-9-10----| outro 
D|--9-9-9--9-9-9-----| 
A|--7-7-7--7-7-7-----|
E|--0-0-0--0-0-0-----|

 I thread the needle through you beat the devilís tattoo
 I thread the needle through you beat the devilís tattoo 



************************************

| /   slide up
| \   slide down
| h   hammer-on
| p   pull-off
| ~   vibrato
| +   harmonic
| x   Mute note
| b   Bend
| pb  Pre-bend
| br  Bend release
| pbr Pre-bend release
| brb Bend release bend
Tap to rate this tab
 
# A B C D E F G H I J K L M N O P Q R S T U V W X Y Z